  0
SECTION
  2
HEADER
  9
$ACADVER
  1
AC1009
  9
$LUNITS
 70
2
  9
$LUPREC
 70
4
  9
$LTSCALE
 40
1.0
  9
$EXTMIN
 10
124.874
 20
-66.6014
 30
0
  9
$EXTMAX
 10
469.2192
 20
169.592
 30
0
  0
ENDSEC
  0
SECTION
  2
TABLES
  0
TABLE
  2
LTYPE
 70
256
  0
ENDTAB
  0
TABLE
  2
LAYER
 70
4
  0
LAYER
  2
LAYER_1
 70
64
 62
7
  6
CONTINUOUS
  0
LAYER
  2
LAYER_2
 70
64
 62
7
  6
CONTINUOUS
  0
LAYER
  2
LAYER_3
 70
64
 62
7
  6
CONTINUOUS
  0
LAYER
  2
LAYER_4
 70
64
 62
7
  6
CONTINUOUS
  0
ENDTAB
  0
TABLE
  2
STYLE
 70
6
  0
STYLE
  2
STANDARD
 70
0
 40
0
 50
0
 71
0
 41
0
 42
0
  3
TXT
  4
BIGFONT
  0
ENDTAB
  0
ENDSEC
  0
SECTION
  2
BLOCKS
  0
BLOCK
  8
LAYER_1
  2
AIGNBL01030005
 70
64
 10
0
 20
0
 30
0
  3
AIGNBL01030005
  0
LINE
  8
LAYER_1
 10
351.6608
 20
-18.6827
 11
351.6608
 21
-24.6402
  0
LINE
  8
LAYER_1
 10
351.6608
 20
-24.6402
 11
352.6854
 21
-24.6402
  0
LINE
  8
LAYER_1
 10
352.6854
 20
-24.6402
 11
352.6854
 21
-24.1943
  0
LINE
  8
LAYER_1
 10
352.6854
 20
-24.1943
 11
355.3631
 21
-24.1943
  0
LINE
  8
LAYER_1
 10
355.3631
 20
-24.1943
 11
355.3631
 21
-24.6402
  0
LINE
  8
LAYER_1
 10
355.3631
 20
-24.6402
 11
356.4356
 21
-24.6402
  0
LINE
  8
LAYER_1
 10
356.4356
 20
-24.6402
 11
356.4356
 21
-18.6827
  0
LINE
  8
LAYER_1
 10
356.4356
 20
-18.6827
 11
351.6608
 21
-18.6827
  0
LINE
  8
LAYER_1
 10
355.3631
 20
-23.2015
 11
352.6854
 21
-23.2015
  0
LINE
  8
LAYER_1
 10
352.6854
 20
-23.2015
 11
352.6854
 21
-21.9114
  0
LINE
  8
LAYER_1
 10
352.6854
 20
-21.9114
 11
355.3631
 21
-21.9114
  0
LINE
  8
LAYER_1
 10
355.3631
 20
-21.9114
 11
355.3631
 21
-23.2015
  0
LINE
  8
LAYER_1
 10
355.3631
 20
-20.9388
 11
352.6854
 21
-20.9388
  0
LINE
  8
LAYER_1
 10
352.6854
 20
-20.9388
 11
352.6854
 21
-19.6756
  0
LINE
  8
LAYER_1
 10
352.6854
 20
-19.6756
 11
355.3631
 21
-19.6756
  0
LINE
  8
LAYER_1
 10
355.3631
 20
-19.6756
 11
355.3631
 21
-20.9388
  0
ENDBLK
  0
BLOCK
  8
LAYER_1
  2
AIGNBL01030006
 70
64
 10
0
 20
0
 30
0
  3
AIGNBL01030006
  0
LINE
  8
LAYER_1
 10
361.1949
 20
-20.6576
 11
363.0347
 21
-20.6576
  0
LINE
  8
LAYER_1
 10
363.0347
 20
-20.6576
 11
363.0347
 21
-19.7345
  0
LINE
  8
LAYER_1
 10
363.0347
 20
-19.7345
 11
360.6544
 21
-19.7345
  0
LINE
  8
LAYER_1
 10
360.6544
 20
-19.7345
 11
360.6544
 21
-18.5234
  0
LINE
  8
LAYER_1
 10
360.6544
 20
-18.5234
 11
359.708
 21
-18.5234
  0
LINE
  8
LAYER_1
 10
359.708
 20
-18.5234
 11
359.708
 21
-19.7345
  0
LINE
  8
LAYER_1
 10
359.708
 20
-19.7345
 11
357.3425
 21
-19.7345
  0
LINE
  8
LAYER_1
 10
357.3425
 20
-19.7345
 11
357.3425
 21
-20.6576
  0
LINE
  8
LAYER_1
 10
357.3425
 20
-20.6576
 11
359.1824
 21
-20.6576
  0
ARC
  8
LAYER_1
 10
352.8546
 20
-17.3096
 40
7.1589
 50
320.090402
 51
332.1165604
  0
ARC
  8
LAYER_1
 10
354.2211
 20
-18.4889
 40
5.3542
 50
306.7900371
 51
320.388939
  0
ARC
  8
LAYER_1
 10
355.363
 20
-19.9296
 40
3.517
 50
299.7830125
 51
305.949067
  0
ARC
  8
LAYER_1
 10
357.3634
 20
-22.9418
 40
0.2566
 50
189.0074096
 51
222.6984605
  0
ARC
  8
LAYER_1
 10
349.1372
 20
-31.2373
 40
11.4263
 50
41.87779049
 51
45.2975775
  0
ARC
  8
LAYER_1
 10
356.4824
 20
-24.3816
 40
1.3954
 50
27.02587099
 51
33.58032053
  0
ARC
  8
LAYER_1
 10
357.2054
 20
-22.7438
 40
1.1304
 50
297.3892127
 51
310.3878745
  0
ARC
  8
LAYER_1
 10
354.0201
 20
-18.4423
 40
6.4808
 50
307.1941606
 51
316.157217
  0
LINE
  8
LAYER_1
 10
358.6943
 20
-22.9314
 11
358.6943
 21
-23.6463
  0
LINE
  8
LAYER_1
 10
358.6943
 20
-23.6463
 11
359.708
 21
-23.6463
  0
LINE
  8
LAYER_1
 10
359.708
 20
-23.6463
 11
359.708
 21
-24.6876
  0
LINE
  8
LAYER_1
 10
359.708
 20
-24.6876
 11
360.6544
 21
-24.6876
  0
LINE
  8
LAYER_1
 10
360.6544
 20
-24.6876
 11
360.6544
 21
-23.6463
  0
LINE
  8
LAYER_1
 10
360.6544
 20
-23.6463
 11
361.6305
 21
-23.6463
  0
LINE
  8
LAYER_1
 10
361.6305
 20
-23.6463
 11
361.6305
 21
-22.8527
  0
ARC
  8
LAYER_1
 10
367.4883
 20
-17.4254
 40
7.9856
 50
222.815146
 51
229.3961219
  0
ARC
  8
LAYER_1
 10
363.3358
 20
-22.334
 40
1.5569
 50
227.8538365
 51
243.321749
  0
ARC
  8
LAYER_1
 10
365.3283
 20
-25.2866
 40
3.1117
 50
130.0133947
 51
149.8793337
  0
ARC
  8
LAYER_1
 10
366.7079
 20
-17.3889
 40
6.4681
 50
224.481624
 51
238.4919087
  0
ARC
  8
LAYER_1
 10
366.2472
 20
-18.041
 40
5.6842
 50
209.4847319
 51
223.0462119
  0
ARC
  8
LAYER_1
 10
368.6885
 20
-16.4658
 40
8.5864
 50
209.2217911
 51
210.6164294
  0
LINE
  8
LAYER_1
 10
359.708
 20
-22.7289
 11
358.8744
 21
-22.7289
  0
ARC
  8
LAYER_1
 10
349.8954
 20
-15.6235
 40
11.4502
 50
321.6442745
 51
327.3776932
  0
ARC
  8
LAYER_1
 10
358.7365
 20
-21.2021
 40
0.9988
 50
323.4874232
 51
346.5604038
  0
LINE
  8
LAYER_1
 10
359.708
 20
-21.4342
 11
359.708
 21
-22.7289
  0
LINE
  8
LAYER_1
 10
360.6544
 20
-22.7289
 11
360.6469
 21
-21.4287
  0
ARC
  8
LAYER_1
 10
362.6699
 20
-20.5916
 40
2.1894
 50
202.4797564
 51
213.37689
  0
ARC
  8
LAYER_1
 10
369.8576
 20
-15.9715
 40
10.7338
 50
212.8634514
 51
219.016696
  0
LINE
  8
LAYER_1
 10
361.5179
 20
-22.7289
 11
360.6544
 21
-22.7289
  0
ENDBLK
  0
BLOCK
  8
LAYER_1
  2
AIGNBL01030007
 70
64
 10
0
 20
0
 30
0
  3
AIGNBL01030007
  0
LINE
  8
LAYER_1
 10
364.3797
 20
-22.0502
 11
364.3797
 21
-24.7051
  0
LINE
  8
LAYER_1
 10
364.3797
 20
-24.7051
 11
365.2777
 21
-24.7051
  0
LINE
  8
LAYER_1
 10
365.2777
 20
-24.7051
 11
365.2777
 21
-24.5221
  0
LINE
  8
LAYER_1
 10
365.2777
 20
-24.5221
 11
368.0042
 21
-24.5221
  0
LINE
  8
LAYER_1
 10
368.0042
 20
-24.5221
 11
368.0042
 21
-24.653
  0
LINE
  8
LAYER_1
 10
368.0042
 20
-24.653
 11
368.9475
 21
-24.653
  0
LINE
  8
LAYER_1
 10
368.9475
 20
-24.653
 11
368.9475
 21
-22.0502
  0
LINE
  8
LAYER_1
 10
368.9475
 20
-22.0502
 11
364.3797
 21
-22.0502
  0
LINE
  8
LAYER_1
 10
365.2777
 20
-22.5871
 11
366.1759
 21
-22.5871
  0
LINE
  8
LAYER_1
 10
366.1759
 20
-22.5871
 11
366.1759
 21
-23.0127
  0
LINE
  8
LAYER_1
 10
366.1759
 20
-23.0127
 11
365.2777
 21
-23.0127
  0
LINE
  8
LAYER_1
 10
365.2777
 20
-23.0127
 11
365.2777
 21
-22.5871
  0
LINE
  8
LAYER_1
 10
366.1822
 20
-23.9775
 11
365.2712
 21
-23.9775
  0
LINE
  8
LAYER_1
 10
365.2712
 20
-23.9775
 11
365.2712
 21
-23.5714
  0
LINE
  8
LAYER_1
 10
365.2712
 20
-23.5714
 11
366.1822
 21
-23.5714
  0
LINE
  8
LAYER_1
 10
366.1822
 20
-23.5714
 11
366.1822
 21
-23.9775
  0
LINE
  8
LAYER_1
 10
368.0042
 20
-23.9775
 11
367.0933
 21
-23.9775
  0
LINE
  8
LAYER_1
 10
367.0933
 20
-23.9775
 11
367.0933
 21
-23.5714
  0
LINE
  8
LAYER_1
 10
367.0933
 20
-23.5714
 11
368.0042
 21
-23.5714
  0
LINE
  8
LAYER_1
 10
368.0042
 20
-23.5714
 11
368.0042
 21
-23.9775
  0
LINE
  8
LAYER_1
 10
368.0042
 20
-22.9955
 11
367.0933
 21
-22.9955
  0
LINE
  8
LAYER_1
 10
367.0933
 20
-22.9955
 11
367.0933
 21
-22.5895
  0
LINE
  8
LAYER_1
 10
367.0933
 20
-22.5895
 11
368.0042
 21
-22.5895
  0
LINE
  8
LAYER_1
 10
368.0042
 20
-22.5895
 11
368.0042
 21
-22.9955
  0
ENDBLK
  0
BLOCK
  8
LAYER_1
  2
AIGNBL01030008
 70
64
 10
0
 20
0
 30
0
  3
AIGNBL01030008
  0
LINE
  8
LAYER_1
 10
372.772
 20
-19.4737
 11
372.772
 21
-18.6171
  0
LINE
  8
LAYER_1
 10
372.772
 20
-18.6171
 11
370.123
 21
-18.6171
  0
LINE
  8
LAYER_1
 10
370.123
 20
-18.6171
 11
370.123
 21
-19.4737
  0
LINE
  8
LAYER_1
 10
370.123
 20
-19.4737
 11
370.8144
 21
-19.4737
  0
ARC
  8
LAYER_1
 10
356.4936
 20
-17.2671
 40
14.4898
 50
345.1345212
 51
351.2405475
  0
ARC
  8
LAYER_1
 10
366.8274
 20
-20.0374
 40
3.7912
 50
328.8660584
 51
345.5344938
  0
ARC
  8
LAYER_1
 10
368.4286
 20
-20.8831
 40
1.9862
 50
321.4032115
 51
325.8630795
  0
ARC
  8
LAYER_1
 10
368.3738
 20
-23.5064
 40
2.1211
 50
13.85472312
 51
40.74075759
  0
LINE
  8
LAYER_1
 10
370.4332
 20
-22.9985
 11
370.5883
 21
-22.7958
  0
LINE
  8
LAYER_1
 10
370.5883
 20
-22.7958
 11
370.5883
 21
-24.2866
  0
LINE
  8
LAYER_1
 10
370.5883
 20
-24.2866
 11
371.3958
 21
-24.2866
  0
LINE
  8
LAYER_1
 10
371.3958
 20
-24.2866
 11
371.3958
 21
-23.8159
  0
LINE
  8
LAYER_1
 10
371.3958
 20
-23.8159
 11
372.6301
 21
-23.8159
  0
LINE
  8
LAYER_1
 10
372.6301
 20
-23.8159
 11
372.6301
 21
-20.6966
  0
LINE
  8
LAYER_1
 10
372.6301
 20
-20.6966
 11
371.4669
 21
-20.6966
  0
ARC
  8
LAYER_1
 10
363.6989
 20
-18.5004
 40
8.0725
 50
344.2131719
 51
353.0750751
  0
LINE
  8
LAYER_1
 10
371.7125
 20
-19.4737
 11
372.772
 21
-19.4737
  0
LINE
  8
LAYER_1
 10
371.803
 20
-22.9919
 11
371.3958
 21
-22.9919
  0
LINE
  8
LAYER_1
 10
371.3958
 20
-22.9919
 11
371.3958
 21
-21.5204
  0
LINE
  8
LAYER_1
 10
371.3958
 20
-21.5204
 11
371.803
 21
-21.5204
  0
LINE
  8
LAYER_1
 10
371.803
 20
-21.5204
 11
371.803
 21
-22.9919
  0
ENDBLK
  0
BLOCK
  8
LAYER_1
  2
AIGNBL01030009
 70
64
 10
0
 20
0
 30
0
  3
AIGNBL01030009
  0
LINE
  8
LAYER_1
 10
375.5843
 20
-21.0627
 11
375.5843
 21
-19.4932
  0
LINE
  8
LAYER_1
 10
375.5843
 20
-19.4932
 11
376.0884
 21
-19.4932
  0
LINE
  8
LAYER_1
 10
376.0884
 20
-19.4932
 11
376.0884
 21
-18.6171
  0
LINE
  8
LAYER_1
 10
376.0884
 20
-18.6171
 11
372.89
 21
-18.6171
  0
LINE
  8
LAYER_1
 10
372.89
 20
-18.6171
 11
372.89
 21
-19.4932
  0
LINE
  8
LAYER_1
 10
372.89
 20
-19.4932
 11
373.323
 21
-19.4932
  0
LINE
  8
LAYER_1
 10
373.323
 20
-19.4932
 11
373.323
 21
-21.0627
  0
LINE
  8
LAYER_1
 10
373.323
 20
-21.0627
 11
372.7285
 21
-21.0627
  0
LINE
  8
LAYER_1
 10
372.7285
 20
-21.0627
 11
372.7285
 21
-21.9587
  0
LINE
  8
LAYER_1
 10
372.7285
 20
-21.9587
 11
373.2971
 21
-21.9587
  0
ARC
  8
LAYER_1
 10
370.5179
 20
-21.9112
 40
2.7796
 50
338.6726626
 51
359.0209934
  0
ARC
  8
LAYER_1
 10
370.2413
 20
-21.8534
 40
3.0587
 50
321.0652746
 51
339.5482703
  0
ARC
  8
LAYER_1
 10
370.471
 20
-22.0198
 40
2.7755
 50
312.3585029
 51
320.7571916
  0
ARC
  8
LAYER_1
 10
369.9128
 20
-28.2294
 40
4.8157
 50
49.01744843
 51
59.72034273
  0
ARC
  8
LAYER_1
 10
371.6288
 20
-22.7923
 40
2.3079
 50
308.6770083
 51
331.7345889
  0
ARC
  8
LAYER_1
 10
370.3348
 20
-22.0397
 40
3.8043
 50
330.9809007
 51
347.5160211
  0
ARC
  8
LAYER_1
 10
369.047
 20
-21.6624
 40
5.144
 50
346.5132457
 51
356.6977471
  0
LINE
  8
LAYER_1
 10
374.1825
 20
-21.9587
 11
374.6928
 21
-21.9587
  0
LINE
  8
LAYER_1
 10
374.6928
 20
-21.9587
 11
374.6928
 21
-24.5744
  0
LINE
  8
LAYER_1
 10
374.6928
 20
-24.5744
 11
375.5843
 21
-24.5744
  0
LINE
  8
LAYER_1
 10
375.5843
 20
-24.5744
 11
375.5843
 21
-21.9587
  0
LINE
  8
LAYER_1
 10
375.5843
 20
-21.9587
 11
376.1659
 21
-21.9587
  0
LINE
  8
LAYER_1
 10
376.1659
 20
-21.9587
 11
376.1659
 21
-21.0627
  0
LINE
  8
LAYER_1
 10
376.1659
 20
-21.0627
 11
375.5843
 21
-21.0627
  0
LINE
  8
LAYER_1
 10
374.6928
 20
-21.0627
 11
374.2017
 21
-21.0627
  0
LINE
  8
LAYER_1
 10
374.2017
 20
-21.0627
 11
374.2017
 21
-19.4932
  0
LINE
  8
LAYER_1
 10
374.2017
 20
-19.4932
 11
374.6928
 21
-19.4932
  0
LINE
  8
LAYER_1
 10
374.6928
 20
-19.4932
 11
374.6928
 21
-21.0627
  0
ENDBLK
  0
BLOCK
  8
LAYER_1
  2
AIGNBL0103000A
 70
64
 10
0
 20
0
 30
0
  3
AIGNBL0103000A
  0
ARC
  8
LAYER_1
 10
348.7749
 20
-19.7029
 40
1.9538
 50
288.5728851
 51
313.5589395
  0
ARC
  8
LAYER_1
 10
349.2926
 20
-20.3423
 40
1.1356
 50
316.8584967
 51
347.2193472
  0
ARC
  8
LAYER_1
 10
348.4589
 20
-20.1395
 40
1.9937
 50
346.8369842
 51
1.013916361
  0
ARC
  8
LAYER_1
 10
349.1937
 20
-20.1074
 40
1.2585
 50
0.1442876533
 51
45.47147913
  0
ARC
  8
LAYER_1
 10
348.6643
 20
-20.6066
 40
1.9859
 50
44.68437791
 51
67.71710381
  0
ARC
  8
LAYER_1
 10
348.4024
 20
-21.0891
 40
2.5323
 50
66.37394432
 51
86.05236678
  0
ARC
  8
LAYER_1
 10
348.5066
 20
-20.2975
 40
1.7361
 50
87.68383207
 51
89.78881595
  0
LINE
  8
LAYER_1
 10
348.513
 20
-18.5614
 11
345.5421
 21
-18.5614
  0
LINE
  8
LAYER_1
 10
345.5421
 20
-18.5614
 11
345.5421
 21
-21.8229
  0
LINE
  8
LAYER_1
 10
345.5421
 20
-21.8229
 11
347.3051
 21
-21.8229
  0
ARC
  8
LAYER_1
 10
347.331
 20
-23.4609
 40
1.6382
 50
64.35518167
 51
90.905835
  0
ARC
  8
LAYER_1
 10
347.5318
 20
-22.9615
 40
1.1016
 50
16.86565433
 51
62.52763861
  0
ARC
  8
LAYER_1
 10
347.7116
 20
-22.8924
 40
0.9097
 50
0.3657920727
 51
15.98793587
  0
LINE
  8
LAYER_1
 10
348.6212
 20
-22.8866
 11
348.6212
 21
-24.6193
  0
LINE
  8
LAYER_1
 10
348.6212
 20
-24.6193
 11
350.1657
 21
-24.6193
  0
LINE
  8
LAYER_1
 10
350.1657
 20
-24.6193
 11
350.1657
 21
-22.7905
  0
ARC
  8
LAYER_1
 10
348.1169
 20
-22.7474
 40
2.0493
 50
358.7953186
 51
12.5237444
  0
ARC
  8
LAYER_1
 10
349.1685
 20
-22.5087
 40
0.971
 50
12.22629885
 51
45.01434
  0
ARC
  8
LAYER_1
 10
348.9903
 20
-22.7785
 40
1.2894
 50
47.89284515
 51
71.60372221
  0
LINE
  8
LAYER_1
 10
348.3227
 20
-20.7712
 11
347.0847
 21
-20.7712
  0
LINE
  8
LAYER_1
 10
347.0847
 20
-20.7712
 11
347.0847
 21
-19.6173
  0
LINE
  8
LAYER_1
 10
347.0847
 20
-19.6173
 11
347.1208
 21
-19.6173
  0
LINE
  8
LAYER_1
 10
347.1208
 20
-19.6173
 11
348.3548
 21
-19.6173
  0
ARC
  8
LAYER_1
 10
348.314
 20
-20.2805
 40
0.6645
 50
46.60498432
 51
86.47787041
  0
ARC
  8
LAYER_1
 10
348.38
 20
-20.1655
 40
0.5365
 50
356.9384635
 51
43.29207093
  0
ARC
  8
LAYER_1
 10
348.3704
 20
-20.1929
 40
0.5453
 50
290.0148134
 51
359.8586292
  0
ARC
  8
LAYER_1
 10
348.194
 20
-19.8655
 40
0.9148
 50
278.085377
 51
293.3808036
  0
ENDBLK
  0
BLOCK
  8
LAYER_1
  2
AIGNBL0103000C
 70
64
 10
0
 20
0
 30
0
  3
AIGNBL0103000C
  0
LINE
  8
LAYER_1
 10
411.3587
 20
-23.705
 11
411.3587
 21
-20.7312
  0
LINE
  8
LAYER_1
 10
411.3587
 20
-20.7312
 11
411.6699
 21
-20.7312
  0
LINE
  8
LAYER_1
 10
411.6699
 20
-20.7312
 11
411.6699
 21
-24.2245
  0
LINE
  8
LAYER_1
 10
411.6699
 20
-24.2245
 11
411.3366
 21
-24.2245
  0
LINE
  8
LAYER_1
 10
411.3366
 20
-24.2245
 11
409.36
 21
-21.1074
  0
LINE
  8
LAYER_1
 10
409.36
 20
-21.1074
 11
409.36
 21
-24.2245
  0
LINE
  8
LAYER_1
 10
409.36
 20
-24.2245
 11
409.0492
 21
-24.2245
  0
LINE
  8
LAYER_1
 10
409.0492
 20
-24.2245
 11
409.0492
 21
-20.7312
  0
LINE
  8
LAYER_1
 10
409.0492
 20
-20.7312
 11
409.4487
 21
-20.7312
  0
LINE
  8
LAYER_1
 10
409.4487
 20
-20.7312
 11
411.3587
 21
-23.705
  0
ENDBLK
  0
BLOCK
  8
LAYER_1
  2
AIGNBL0103000D
 70
64
 10
0
 20
0
 30
0
  3
AIGNBL0103000D
  0
LINE
  8
LAYER_1
 10
412.7136
 20
-21.1074
 11
412.3586
 21
-21.1074
  0
LINE
  8
LAYER_1
 10
412.3586
 20
-21.1074
 11
412.3586
 21
-20.7312
  0
LINE
  8
LAYER_1
 10
412.3586
 20
-20.7312
 11
412.7136
 21
-20.7312
  0
LINE
  8
LAYER_1
 10
412.7136
 20
-20.7312
 11
412.7136
 21
-21.1074
  0
LINE
  8
LAYER_1
 10
412.6915
 20
-24.2245
 11
412.3807
 21
-24.2245
  0
LINE
  8
LAYER_1
 10
412.3807
 20
-24.2245
 11
412.3807
 21
-21.7702
  0
LINE
  8
LAYER_1
 10
412.3807
 20
-21.7702
 11
412.6915
 21
-21.7702
  0
LINE
  8
LAYER_1
 10
412.6915
 20
-21.7702
 11
412.6915
 21
-24.2245
  0
ENDBLK
  0
BLOCK
  8
LAYER_1
  2
AIGNBL0103000E
 70
64
 10
0
 20
0
 30
0
  3
AIGNBL0103000E
  0
LINE
  8
LAYER_1
 10
413.7132
 20
-24.2245
 11
413.4023
 21
-24.2245
  0
LINE
  8
LAYER_1
 10
413.4023
 20
-24.2245
 11
413.4023
 21
-20.7312
  0
LINE
  8
LAYER_1
 10
413.4023
 20
-20.7312
 11
413.7132
 21
-20.7312
  0
LINE
  8
LAYER_1
 10
413.7132
 20
-20.7312
 11
413.7132
 21
-22.2719
  0
ARC
  8
LAYER_1
 10
414.732
 20
-22.8946
 40
1.1941
 50
129.0472343
 51
148.564937
  0
ARC
  8
LAYER_1
 10
414.5397
 20
-22.6703
 40
0.8988
 50
91.65940168
 51
128.536351
  0
ARC
  8
LAYER_1
 10
414.5766
 20
-22.9101
 40
1.1399
 50
89.86158847
 51
93.16434886
  0
ARC
  8
LAYER_1
 10
414.6149
 20
-22.6836
 40
0.9141
 50
55.36538414
 51
92.22365013
  0
ARC
  8
LAYER_1
 10
414.6818
 20
-22.4625
 40
0.6977
 50
7.392823027
 51
49.55460188
  0
ARC
  8
LAYER_1
 10
413.7678
 20
-22.6705
 40
1.6332
 50
359.5282561
 51
10.50481292
  0
LINE
  8
LAYER_1
 10
415.401
 20
-22.6839
 11
415.401
 21
-24.2245
  0
LINE
  8
LAYER_1
 10
415.401
 20
-24.2245
 11
415.0902
 21
-24.2245
  0
LINE
  8
LAYER_1
 10
415.0902
 20
-24.2245
 11
415.0902
 21
-22.7197
  0
ARC
  8
LAYER_1
 10
413.956
 20
-22.6797
 40
1.1349
 50
357.9805338
 51
16.98234035
  0
ARC
  8
LAYER_1
 10
414.6258
 20
-22.4721
 40
0.4337
 50
16.59160651
 51
48.64931069
  0
ARC
  8
LAYER_1
 10
414.5418
 20
-22.6278
 40
0.6074
 50
52.41132045
 51
92.74352394
  0
ARC
  8
LAYER_1
 10
414.513
 20
-22.7142
 40
0.6931
 50
90.02415888
 51
129.8757432
  0
ARC
  8
LAYER_1
 10
414.6452
 20
-22.9195
 40
0.9359
 50
128.0316219
 51
164.2335047
  0
ARC
  8
LAYER_1
 10
414.7018
 20
-22.9121
 40
0.9886
 50
165.5387618
 51
180.2743268
  0
LINE
  8
LAYER_1
 10
413.7132
 20
-22.9168
 11
413.7132
 21
-24.2245
  0
ENDBLK
  0
BLOCK
  8
LAYER_1
  2
AIGNBL0103000F
 70
64
 10
0
 20
0
 30
0
  3
AIGNBL0103000F
  0
ARC
  8
LAYER_1
 10
417.2258
 20
-22.956
 40
1.1858
 50
50.65213458
 51
90.1728864
  0
ARC
  8
LAYER_1
 10
417.3703
 20
-22.7809
 40
0.9587
 50
14.76355825
 51
50.69855756
  0
ARC
  8
LAYER_1
 10
416.7584
 20
-22.9626
 40
1.5969
 50
359.0755011
 51
15.47390009
  0
ARC
  8
LAYER_1
 10
416.8666
 20
-23.0264
 40
1.489
 50
332.9248548
 51
1.463570552
  0
ARC
  8
LAYER_1
 10
417.4089
 20
-23.2528
 40
0.9042
 50
308.9730079
 51
330.0558863
  0
ARC
  8
LAYER_1
 10
417.2234
 20
-23.0316
 40
1.1929
 50
269.9434886
 51
309.2180251
  0
ARC
  8
LAYER_1
 10
417.2183
 20
-23.0405
 40
1.184
 50
230.6294792
 51
270.1898386
  0
ARC
  8
LAYER_1
 10
417.0681
 20
-23.2211
 40
0.9491
 50
194.5638459
 51
230.717391
  0
ARC
  8
LAYER_1
 10
417.7495
 20
-23.0173
 40
1.6601
 50
179.0015303
 51
195.4587807
  0
ARC
  8
LAYER_1
 10
417.5237
 20
-22.9525
 40
1.4344
 50
152.4345343
 51
181.4354742
  0
ARC
  8
LAYER_1
 10
417.0404
 20
-22.7504
 40
0.9135
 50
128.8594004
 51
149.6424325
  0
ARC
  8
LAYER_1
 10
417.2212
 20
-22.962
 40
1.1918
 50
89.95079209
 51
129.243361
  0
ARC
  8
LAYER_1
 10
417.1921
 20
-22.7919
 40
0.7485
 50
129.9545216
 51
170.5146889
  0
ARC
  8
LAYER_1
 10
417.9451
 20
-22.975
 40
1.5225
 50
168.3885338
 51
180.5058284
  0
ARC
  8
LAYER_1
 10
417.6348
 20
-23.0333
 40
1.2129
 50
177.8763812
 51
209.7521938
  0
ARC
  8
LAYER_1
 10
417.1172
 20
-23.2746
 40
0.6455
 50
213.9633399
 51
231.0556063
  0
ARC
  8
LAYER_1
 10
417.2151
 20
-23.158
 40
0.7978
 50
230.8483722
 51
270.5075942
  0
ARC
  8
LAYER_1
 10
417.2278
 20
-23.1538
 40
0.802
 50
269.600767
 51
309.0432666
  0
ARC
  8
LAYER_1
 10
417.2499
 20
-23.2035
 40
0.7496
 50
310.1250546
 51
351.1971443
  0
ARC
  8
LAYER_1
 10
416.417
 20
-23.0034
 40
1.6049
 50
348.6851655
 51
0.5346466607
  0
ARC
  8
LAYER_1
 10
416.8608
 20
-22.9467
 40
1.1618
 50
357.9409237
 51
30.41562059
  0
ARC
  8
LAYER_1
 10
417.3174
 20
-22.732
 40
0.661
 50
34.41492789
 51
51.03830788
  0
ARC
  8
LAYER_1
 10
417.2282
 20
-22.8398
 40
0.8008
 50
50.9244318
 51
90.43153459
  0
ARC
  8
LAYER_1
 10
417.2169
 20
-22.8419
 40
0.8029
 50
89.62325414
 51
129.0207794
  0
ENDBLK
  0
BLOCK
  8
LAYER_1
  2
AIGNBL01030010
 70
64
 10
0
 20
0
 30
0
  3
AIGNBL01030010
  0
ARC
  8
LAYER_1
 10
420.3535
 20
-22.4465
 40
0.6523
 50
6.057824587
 51
49.65076746
  0
ARC
  8
LAYER_1
 10
419.5795
 20
-22.6065
 40
1.4409
 50
359.7751054
 51
9.139665558
  0
LINE
  8
LAYER_1
 10
421.0204
 20
-22.6122
 11
421.0204
 21
-24.2245
  0
LINE
  8
LAYER_1
 10
421.0204
 20
-24.2245
 11
420.7095
 21
-24.2245
  0
LINE
  8
LAYER_1
 10
420.7095
 20
-24.2245
 11
420.7095
 21
-22.6481
  0
ARC
  8
LAYER_1
 10
419.8493
 20
-22.619
 40
0.8607
 50
358.0623492
 51
19.47829625
  0
ARC
  8
LAYER_1
 10
420.2534
 20
-22.4777
 40
0.4326
 50
19.68098657
 51
49.96332949
  0
ARC
  8
LAYER_1
 10
420.1979
 20
-22.602
 40
0.5647
 50
53.76649242
 51
94.44297082
  0
ARC
  8
LAYER_1
 10
420.1544
 20
-22.7323
 40
0.6933
 50
90.01935744
 51
129.8722706
  0
ARC
  8
LAYER_1
 10
420.4126
 20
-23.0622
 40
1.1121
 50
129.1838779
 51
162.0625498
  0
LINE
  8
LAYER_1
 10
419.3546
 20
-22.7197
 11
419.3546
 21
-24.2245
  0
LINE
  8
LAYER_1
 10
419.3546
 20
-24.2245
 11
419.0438
 21
-24.2245
  0
LINE
  8
LAYER_1
 10
419.0438
 20
-24.2245
 11
419.0438
 21
-21.7702
  0
LINE
  8
LAYER_1
 10
419.0438
 20
-21.7702
 11
419.3546
 21
-21.7702
  0
LINE
  8
LAYER_1
 10
419.3546
 20
-21.7702
 11
419.3546
 21
-22.2719
  0
ARC
  8
LAYER_1
 10
420.2757
 20
-22.8634
 40
1.0947
 50
128.1972663
 51
147.2935614
  0
ARC
  8
LAYER_1
 10
420.2473
 20
-22.7822
 40
1.0137
 50
94.72376074
 51
129.776402
  0
ARC
  8
LAYER_1
 10
420.2201
 20
-22.6884
 40
0.9182
 50
89.95828009
 51
93.51329337
  0
ARC
  8
LAYER_1
 10
420.2401
 20
-22.6615
 40
0.8915
 50
53.90537529
 51
91.24248329
  0
ARC
  8
LAYER_1
 10
420.292
 20
-22.5503
 40
0.7714
 50
51.16368699
 51
52.15552028
  0
ENDBLK
  0
BLOCK
  8
LAYER_1
  2
AIGNBL01030011
 70
64
 10
0
 20
0
 30
0
  3
AIGNBL01030011
  0
LINE
  8
LAYER_1
 10
424.507
 20
-24.2245
 11
424.1295
 21
-24.2245
  0
LINE
  8
LAYER_1
 10
424.1295
 20
-24.2245
 11
422.9745
 21
-22.6122
  0
LINE
  8
LAYER_1
 10
422.9745
 20
-22.6122
 11
422.0195
 21
-22.6122
  0
LINE
  8
LAYER_1
 10
422.0195
 20
-22.6122
 11
422.0195
 21
-24.2245
  0
LINE
  8
LAYER_1
 10
422.0195
 20
-24.2245
 11
421.7087
 21
-24.2245
  0
LINE
  8
LAYER_1
 10
421.7087
 20
-24.2245
 11
421.7087
 21
-20.7312
  0
LINE
  8
LAYER_1
 10
421.7087
 20
-20.7312
 11
423.1078
 21
-20.7312
  0
ARC
  8
LAYER_1
 10
423.1564
 20
-22.4427
 40
1.7122
 50
64.78634393
 51
91.62619302
  0
ARC
  8
LAYER_1
 10
423.4603
 20
-21.6747
 40
0.8895
 50
51.15329891
 51
61.42266901
  0
ARC
  8
LAYER_1
 10
423.4923
 20
-21.6339
 40
0.8376
 50
358.0228083
 51
51.10835206
  0
ARC
  8
LAYER_1
 10
423.4473
 20
-21.6797
 40
0.8823
 50
324.0475498
 51
1.096638045
  0
ARC
  8
LAYER_1
 10
423.4785
 20
-21.6698
 40
0.8632
 50
308.7011907
 51
322.3035235
  0
ARC
  8
LAYER_1
 10
423.4006
 20
-21.5527
 40
1.0033
 50
290.1258472
 51
307.9890184
  0
ARC
  8
LAYER_1
 10
423.1302
 20
-20.7978
 40
1.8052
 50
275.6475351
 51
289.9423501
  0
LINE
  8
LAYER_1
 10
423.3078
 20
-22.5943
 11
424.507
 21
-24.2245
  0
LINE
  8
LAYER_1
 10
422.0195
 20
-20.9999
 11
422.0195
 21
-22.3435
  0
LINE
  8
LAYER_1
 10
422.0195
 20
-22.3435
 11
423.0191
 21
-22.3435
  0
ARC
  8
LAYER_1
 10
423.0545
 20
-20.6344
 40
1.7094
 50
268.8117583
 51
283.8243539
  0
ARC
  8
LAYER_1
 10
423.2683
 20
-21.4834
 40
0.834
 50
283.5030587
 51
307.3374518
  0
ARC
  8
LAYER_1
 10
423.401
 20
-21.6824
 40
0.5955
 50
308.80277
 51
1.890565161
  0
ARC
  8
LAYER_1
 10
423.3843
 20
-21.6508
 40
0.6119
 50
358.8758829
 51
50.43078194
  0
ARC
  8
LAYER_1
 10
423.3242
 20
-21.7595
 40
0.7343
 50
52.21990913
 51
73.14509507
  0
ARC
  8
LAYER_1
 10
423.1427
 20
-22.3867
 40
1.3872
 50
73.48179927
 51
91.44333806
  0
LINE
  8
LAYER_1
 10
423.1078
 20
-20.9999
 11
422.0195
 21
-20.9999
  0
ENDBLK
  0
BLOCK
  8
LAYER_1
  2
AIGNBL01030012
 70
64
 10
0
 20
0
 30
0
  3
AIGNBL01030012
  0
ARC
  8
LAYER_1
 10
426.347
 20
-22.4744
 40
0.6478
 50
358.8998549
 51
51.50770369
  0
LINE
  8
LAYER_1
 10
426.9947
 20
-22.4868
 11
426.9947
 21
-23.705
  0
ARC
  8
LAYER_1
 10
428.0323
 20
-23.7154
 40
1.0376
 50
179.4235989
 51
209.3795198
  0
LINE
  8
LAYER_1
 10
427.1281
 20
-24.2245
 11
426.7948
 21
-24.2245
  0
ARC
  8
LAYER_1
 10
427.3948
 20
-23.8425
 40
0.7113
 50
181.9118457
 51
212.4845419
  0
ARC
  8
LAYER_1
 10
426.0337
 20
-23.3086
 40
0.8565
 50
307.1178262
 51
319.3839439
  0
ARC
  8
LAYER_1
 10
425.895
 20
-23.1708
 40
1.0505
 50
274.342736
 51
308.613264
  0
ARC
  8
LAYER_1
 10
425.8463
 20
-22.9105
 40
1.314
 50
269.7157622
 51
275.6021462
  0
ARC
  8
LAYER_1
 10
425.8157
 20
-23.2103
 40
1.0145
 50
236.2968859
 51
271.3584788
  0
ARC
  8
LAYER_1
 10
425.7358
 20
-23.3861
 40
0.8245
 50
231.0747791
 51
234.1395455
  0
ARC
  8
LAYER_1
 10
425.5506
 20
-23.6116
 40
0.5327
 50
178.4884988
 51
231.3335658
  0
ARC
  8
LAYER_1
 10
425.5535
 20
-23.6018
 40
0.5354
 50
125.8132499
 51
179.5421234
  0
ARC
  8
LAYER_1
 10
426.0376
 20
-24.2334
 40
1.3311
 50
111.9751422
 51
126.8013201
  0
ARC
  8
LAYER_1
 10
426.9509
 20
-26.4116
 40
3.6929
 50
106.0714701
 51
112.4703746
  0
ARC
  8
LAYER_1
 10
424.8968
 20
-19.0052
 40
3.9934
 50
284.9741386
 51
296.5845482
  0
ARC
  8
LAYER_1
 10
426.1491
 20
-22.5432
 40
0.5358
 50
356.4459578
 51
44.98280082
  0
ARC
  8
LAYER_1
 10
426.1112
 20
-22.6966
 40
0.6761
 50
51.92712517
 51
92.30568109
  0
ARC
  8
LAYER_1
 10
426.0743
 20
-22.6857
 40
0.6647
 50
89.15957603
 51
128.3444058
  0
ARC
  8
LAYER_1
 10
426.0302
 20
-22.6043
 40
0.5737
 50
129.9351318
 51
171.8226885
  0
LINE
  8
LAYER_1
 10
425.4623
 20
-22.5227
 11
425.1069
 21
-22.5227
  0
ARC
  8
LAYER_1
 10
425.9394
 20
-22.6442
 40
0.8413
 50
126.4288023
 51
171.6952792
  0
ARC
  8
LAYER_1
 10
426.0055
 20
-22.6952
 40
0.9219
 50
91.54486952
 51
127.8507148
  0
ARC
  8
LAYER_1
 10
426.078
 20
-23.1273
 40
1.3571
 50
89.74470742
 51
94.11271332
  0
ARC
  8
LAYER_1
 10
426.1187
 20
-22.8993
 40
1.1296
 50
58.6194476
 51
91.75785475
  0
ARC
  8
LAYER_1
 10
426.2656
 20
-22.5702
 40
0.7735
 50
51.21066166
 51
55.21930848
  0
ARC
  8
LAYER_1
 10
425.6135
 20
-20.7277
 40
2.3886
 50
282.452262
 51
296.6251858
  0
ARC
  8
LAYER_1
 10
426.4479
 20
-24.7491
 40
1.7189
 50
100.7104131
 51
123.2096925
  0
ARC
  8
LAYER_1
 10
425.7293
 20
-23.6171
 40
0.3787
 50
126.0379939
 51
177.0272144
  0
ARC
  8
LAYER_1
 10
425.666
 20
-23.5909
 40
0.315
 50
181.1933991
 51
234.7878184
  0
ARC
  8
LAYER_1
 10
425.818
 20
-23.3935
 40
0.564
 50
233.7415385
 51
274.4679247
  0
ARC
  8
LAYER_1
 10
425.8909
 20
-23.0889
 40
0.8673
 50
268.0847434
 51
305.5521241
  0
ARC
  8
LAYER_1
 10
425.3509
 20
-22.454
 40
1.6993
 50
307.9164297
 51
321.6652821
  0
LINE
  8
LAYER_1
 10
426.6839
 20
-23.508
 11
426.6839
 21
-22.863
  0
ENDBLK
  0
BLOCK
  8
LAYER_1
  2
AIGNBL01030013
 70
64
 10
0
 20
0
 30
0
  3
AIGNBL01030013
  0
LINE
  8
LAYER_1
 10
428.1718
 20
-21.1074
 11
427.8168
 21
-21.1074
  0
LINE
  8
LAYER_1
 10
427.8168
 20
-21.1074
 11
427.8168
 21
-20.7312
  0
LINE
  8
LAYER_1
 10
427.8168
 20
-20.7312
 11
428.1718
 21
-20.7312
  0
LINE
  8
LAYER_1
 10
428.1718
 20
-20.7312
 11
428.1718
 21
-21.1074
  0
LINE
  8
LAYER_1
 10
428.1497
 20
-24.2245
 11
427.8389
 21
-24.2245
  0
LINE
  8
LAYER_1
 10
427.8389
 20
-24.2245
 11
427.8389
 21
-21.7702
  0
LINE
  8
LAYER_1
 10
427.8389
 20
-21.7702
 11
428.1497
 21
-21.7702
  0
LINE
  8
LAYER_1
 10
428.1497
 20
-21.7702
 11
428.1497
 21
-24.2245
  0
ENDBLK
  0
BLOCK
  8
LAYER_1
  2
AIGNBL01030014
 70
64
 10
0
 20
0
 30
0
  3
AIGNBL01030014
  0
LINE
  8
LAYER_1
 10
429.1713
 20
-22.9347
 11
430.4817
 21
-21.7702
  0
LINE
  8
LAYER_1
 10
430.4817
 20
-21.7702
 11
430.8813
 21
-21.7702
  0
LINE
  8
LAYER_1
 10
430.8813
 20
-21.7702
 11
429.8821
 21
-22.6839
  0
LINE
  8
LAYER_1
 10
429.8821
 20
-22.6839
 11
431.0371
 21
-24.2245
  0
LINE
  8
LAYER_1
 10
431.0371
 20
-24.2245
 11
430.6592
 21
-24.2245
  0
LINE
  8
LAYER_1
 10
430.6592
 20
-24.2245
 11
429.6601
 21
-22.8809
  0
LINE
  8
LAYER_1
 10
429.6601
 20
-22.8809
 11
429.1713
 21
-23.293
  0
LINE
  8
LAYER_1
 10
429.1713
 20
-23.293
 11
429.1713
 21
-24.2245
  0
LINE
  8
LAYER_1
 10
429.1713
 20
-24.2245
 11
428.8605
 21
-24.2245
  0
LINE
  8
LAYER_1
 10
428.8605
 20
-24.2245
 11
428.8605
 21
-20.7312
  0
LINE
  8
LAYER_1
 10
428.8605
 20
-20.7312
 11
429.1713
 21
-20.7312
  0
LINE
  8
LAYER_1
 10
429.1713
 20
-20.7312
 11
429.1713
 21
-22.9347
  0
ENDBLK
  0
BLOCK
  8
LAYER_1
  2
AIGNBL01030015
 70
64
 10
0
 20
0
 30
0
  3
AIGNBL01030015
  0
ARC
  8
LAYER_1
 10
433.0021
 20
-22.673
 40
0.8774
 50
12.60109459
 51
49.77799803
  0
ARC
  8
LAYER_1
 10
431.8922
 20
-22.9963
 40
2.0324
 50
358.7050217
 51
14.66858492
  0
LINE
  8
LAYER_1
 10
433.9241
 20
-23.0422
 11
432.0584
 21
-23.0422
  0
ARC
  8
LAYER_1
 10
433.2228
 20
-23.0394
 40
1.1644
 50
180.139925
 51
212.9375528
  0
ARC
  8
LAYER_1
 10
432.7336
 20
-23.2985
 40
0.6149
 50
217.4603672
 51
231.0501941
  0
ARC
  8
LAYER_1
 10
432.8508
 20
-23.158
 40
0.7978
 50
230.8483722
 51
270.5075942
  0
ARC
  8
LAYER_1
 10
432.8635
 20
-23.1537
 40
0.8021
 50
269.6030079
 51
309.0410257
  0
ARC
  8
LAYER_1
 10
433.0083
 20
-23.336
 40
0.5693
 50
309.2741342
 51
349.8536404
  0
LINE
  8
LAYER_1
 10
433.5687
 20
-23.4363
 11
433.8795
 21
-23.4363
  0
ARC
  8
LAYER_1
 10
433.059
 20
-23.3441
 40
0.8257
 50
314.9082692
 51
353.5909947
  0
ARC
  8
LAYER_1
 10
433.1067
 20
-23.3698
 40
0.774
 50
308.7196044
 51
313.7496745
  0
ARC
  8
LAYER_1
 10
432.8791
 20
-23.0902
 40
1.1345
 50
268.9296117
 51
308.8525082
  0
ARC
  8
LAYER_1
 10
432.8402
 20
-22.9976
 40
1.227
 50
239.2950782
 51
270.8263817
  0
ARC
  8
LAYER_1
 10
432.79
 20
-23.1264
 40
1.0909
 50
230.9602875
 51
238.1075899
  0
ARC
  8
LAYER_1
 10
432.7025
 20
-23.2434
 40
0.9449
 50
194.4739004
 51
230.6139941
  0
ARC
  8
LAYER_1
 10
433.4365
 20
-23.0213
 40
1.7114
 50
178.8974963
 51
195.5311997
  0
ARC
  8
LAYER_1
 10
433.189
 20
-22.9536
 40
1.464
 50
152.2530449
 51
181.3625408
  0
ARC
  8
LAYER_1
 10
432.7395
 20
-22.7668
 40
0.9802
 50
128.8211147
 51
149.6825298
  0
ARC
  8
LAYER_1
 10
432.7804
 20
-22.8312
 40
1.0561
 50
94.54669966
 51
128.3632401
  0
ARC
  8
LAYER_1
 10
432.8488
 20
-23.1773
 40
1.4071
 50
89.62882822
 51
96.20374131
  0
ARC
  8
LAYER_1
 10
432.8763
 20
-22.9321
 40
1.1621
 50
58.70061417
 51
90.90531606
  0
ARC
  8
LAYER_1
 10
432.9337
 20
-22.7911
 40
1.012
 50
51.13492566
 51
57.33000345
  0
ARC
  8
LAYER_1
 10
432.6976
 20
-22.7833
 40
0.8933
 50
0.6314441589
 51
37.94900298
  0
ARC
  8
LAYER_1
 10
433.001
 20
-22.6079
 40
0.5483
 50
42.99486785
 51
50.92016644
  0
ARC
  8
LAYER_1
 10
432.8822
 20
-22.7689
 40
0.7482
 50
51.62942978
 51
91.85980427
  0
ARC
  8
LAYER_1
 10
432.8356
 20
-22.8404
 40
0.8196
 50
88.44194211
 51
126.5877202
  0
ARC
  8
LAYER_1
 10
432.8404
 20
-22.7893
 40
0.7821
 50
129.0997386
 51
178.8450805
  0
LINE
  8
LAYER_1
 10
432.0584
 20
-22.7735
 11
433.5908
 21
-22.7735
  0
ENDBLK
  0
BLOCK
  8
LAYER_1
  2
AIGNBL01030016
 70
64
 10
0
 20
0
 30
0
  3
AIGNBL01030016
  0
ARC
  8
LAYER_1
 10
435.9223
 20
-22.4465
 40
0.6524
 50
6.056198854
 51
49.63190274
  0
ARC
  8
LAYER_1
 10
435.1483
 20
-22.6065
 40
1.4411
 50
359.7752786
 51
9.138499501
  0
LINE
  8
LAYER_1
 10
436.5894
 20
-22.6122
 11
436.5894
 21
-24.2245
  0
LINE
  8
LAYER_1
 10
436.5894
 20
-24.2245
 11
436.2786
 21
-24.2245
  0
LINE
  8
LAYER_1
 10
436.2786
 20
-24.2245
 11
436.2786
 21
-22.6481
  0
ARC
  8
LAYER_1
 10
435.4188
 20
-22.619
 40
0.8603
 50
358.0603236
 51
19.48539995
  0
ARC
  8
LAYER_1
 10
435.8227
 20
-22.4777
 40
0.4324
 50
19.69025093
 51
49.98971793
  0
ARC
  8
LAYER_1
 10
435.767
 20
-22.6018
 40
0.5645
 50
53.76025628
 51
94.44920695
  0
ARC
  8
LAYER_1
 10
435.7235
 20
-22.7325
 40
0.6935
 50
90.02758188
 51
129.8640462
  0
ARC
  8
LAYER_1
 10
435.9816
 20
-23.0622
 40
1.1121
 50
129.1838779
 51
162.0625498
  0
LINE
  8
LAYER_1
 10
434.9236
 20
-22.7197
 11
434.9236
 21
-24.2245
  0
LINE
  8
LAYER_1
 10
434.9236
 20
-24.2245
 11
434.6128
 21
-24.2245
  0
LINE
  8
LAYER_1
 10
434.6128
 20
-24.2245
 11
434.6128
 21
-21.7702
  0
LINE
  8
LAYER_1
 10
434.6128
 20
-21.7702
 11
434.9236
 21
-21.7702
  0
LINE
  8
LAYER_1
 10
434.9236
 20
-21.7702
 11
434.9236
 21
-22.2719
  0
ARC
  8
LAYER_1
 10
435.8447
 20
-22.8634
 40
1.0947
 50
128.1972663
 51
147.2935614
  0
ARC
  8
LAYER_1
 10
435.8164
 20
-22.7823
 40
1.0139
 50
94.72575203
 51
129.7728799
  0
ARC
  8
LAYER_1
 10
435.7891
 20
-22.6881
 40
0.9179
 50
89.95901443
 51
93.51387211
  0
ARC
  8
LAYER_1
 10
435.8091
 20
-22.6619
 40
0.8919
 50
53.91369061
 51
91.23976713
  0
ARC
  8
LAYER_1
 10
435.8606
 20
-22.5513
 40
0.7725
 50
51.18248121
 51
52.17327012
  0
ENDBLK
  0
BLOCK
  8
LAYER_1
  2
AIGNBL01030017
 70
64
 10
0
 20
0
 30
0
  3
AIGNBL01030017
  0
LINE
  8
LAYER_1
 10
438.7214
 20
-23.7946
 11
439.7876
 21
-20.7312
  0
LINE
  8
LAYER_1
 10
439.7876
 20
-20.7312
 11
440.1651
 21
-20.7312
  0
LINE
  8
LAYER_1
 10
440.1651
 20
-20.7312
 11
438.8993
 21
-24.2245
  0
LINE
  8
LAYER_1
 10
438.8993
 20
-24.2245
 11
438.5439
 21
-24.2245
  0
LINE
  8
LAYER_1
 10
438.5439
 20
-24.2245
 11
437.2781
 21
-20.7312
  0
LINE
  8
LAYER_1
 10
437.2781
 20
-20.7312
 11
437.6556
 21
-20.7312
  0
LINE
  8
LAYER_1
 10
437.6556
 20
-20.7312
 11
438.7214
 21
-23.7946
  0
ENDBLK
  0
BLOCK
  8
LAYER_1
  2
AIGNBL01030018
 70
64
 10
0
 20
0
 30
0
  3
AIGNBL01030018
  0
ARC
  8
LAYER_1
 10
442.1305
 20
-22.673
 40
0.8774
 50
12.60109459
 51
49.77799803
  0
ARC
  8
LAYER_1
 10
441.0206
 20
-22.9963
 40
2.0324
 50
358.7050217
 51
14.66858492
  0
LINE
  8
LAYER_1
 10
443.0525
 20
-23.0422
 11
441.1867
 21
-23.0422
  0
ARC
  8
LAYER_1
 10
442.3518
 20
-23.039
 40
1.1651
 50
180.1564368
 51
212.937591
  0
ARC
  8
LAYER_1
 10
441.8621
 20
-23.2985
 40
0.6149
 50
217.4609626
 51
231.0501281
  0
ARC
  8
LAYER_1
 10
441.9792
 20
-23.158
 40
0.7978
 50
230.8483722
 51
270.5075942
  0
ARC
  8
LAYER_1
 10
441.9919
 20
-23.1537
 40
0.8021
 50
269.6030079
 51
309.0410257
  0
ARC
  8
LAYER_1
 10
442.1367
 20
-23.336
 40
0.5693
 50
309.2741342
 51
349.8536404
  0
LINE
  8
LAYER_1
 10
442.6971
 20
-23.4363
 11
443.0079
 21
-23.4363
  0
ARC
  8
LAYER_1
 10
442.1874
 20
-23.3441
 40
0.8257
 50
314.9082692
 51
353.5909947
  0
ARC
  8
LAYER_1
 10
442.2351
 20
-23.3698
 40
0.774
 50
308.7196044
 51
313.7496745
  0
ARC
  8
LAYER_1
 10
442.0075
 20
-23.0902
 40
1.1345
 50
268.9296117
 51
308.8525082
  0
ARC
  8
LAYER_1
 10
441.9686
 20
-22.9976
 40
1.227
 50
239.2950782
 51
270.8263817
  0
ARC
  8
LAYER_1
 10
441.9184
 20
-23.1264
 40
1.0909
 50
230.9602875
 51
238.1075899
  0
ARC
  8
LAYER_1
 10
441.8309
 20
-23.2434
 40
0.9449
 50
194.4739004
 51
230.6139941
  0
ARC
  8
LAYER_1
 10
442.5649
 20
-23.0213
 40
1.7114
 50
178.8974963
 51
195.5311997
  0
ARC
  8
LAYER_1
 10
442.3174
 20
-22.9536
 40
1.464
 50
152.2530449
 51
181.3625408
  0
ARC
  8
LAYER_1
 10
441.8679
 20
-22.7668
 40
0.9802
 50
128.8211147
 51
149.6825298
  0
ARC
  8
LAYER_1
 10
441.9088
 20
-22.8312
 40
1.0561
 50
94.54669966
 51
128.3632401
  0
ARC
  8
LAYER_1
 10
441.9772
 20
-23.1773
 40
1.4071
 50
89.62882822
 51
96.20374131
  0
ARC
  8
LAYER_1
 10
442.0047
 20
-22.9321
 40
1.1621
 50
58.70061417
 51
90.90531606
  0
ARC
  8
LAYER_1
 10
442.0621
 20
-22.7911
 40
1.012
 50
51.13492566
 51
57.33000345
  0
ARC
  8
LAYER_1
 10
441.826
 20
-22.7833
 40
0.8933
 50
0.6314441589
 51
37.94900298
  0
ARC
  8
LAYER_1
 10
442.1294
 20
-22.6079
 40
0.5483
 50
42.99486785
 51
50.92016644
  0
ARC
  8
LAYER_1
 10
442.0106
 20
-22.7689
 40
0.7482
 50
51.62942978
 51
91.85980427
  0
ARC
  8
LAYER_1
 10
441.964
 20
-22.8404
 40
0.8196
 50
88.44194211
 51
126.5877202
  0
ARC
  8
LAYER_1
 10
441.969
 20
-22.7895
 40
0.7825
 50
129.1017402
 51
178.8274293
  0
LINE
  8
LAYER_1
 10
441.1867
 20
-22.7735
 11
442.7192
 21
-22.7735
  0
ENDBLK
  0
BLOCK
  8
LAYER_1
  2
AIGNBL01030019
 70
64
 10
0
 20
0
 30
0
  3
AIGNBL01030019
  0
ARC
  8
LAYER_1
 10
445.0359
 20
-22.6367
 40
0.8377
 50
1.677130822
 51
51.05752676
  0
LINE
  8
LAYER_1
 10
445.8732
 20
-22.6122
 11
445.5399
 21
-22.6122
  0
ARC
  8
LAYER_1
 10
444.8962
 20
-22.6299
 40
0.6439
 50
1.576279838
 51
45.71912971
  0
ARC
  8
LAYER_1
 10
445.0473
 20
-22.526
 40
0.4654
 50
50.10708026
 51
50.98377502
  0
ARC
  8
LAYER_1
 10
444.9227
 20
-22.6986
 40
0.678
 50
51.98814984
 51
92.25219575
  0
ARC
  8
LAYER_1
 10
444.8908
 20
-22.8247
 40
0.8036
 50
89.6186395
 51
129.0043909
  0
ARC
  8
LAYER_1
 10
444.8971
 20
-22.8174
 40
0.802
 50
129.680504
 51
169.2395922
  0
ARC
  8
LAYER_1
 10
445.582
 20
-22.9914
 40
1.508
 50
167.6045047
 51
180.5658615
  0
ARC
  8
LAYER_1
 10
445.286
 20
-23.0512
 40
1.2127
 50
177.8784183
 51
209.762352
  0
ARC
  8
LAYER_1
 10
444.7683
 20
-23.2927
 40
0.6451
 50
213.9709832
 51
231.07243
  0
ARC
  8
LAYER_1
 10
444.8591
 20
-23.197
 40
0.7767
 50
230.2972029
 51
269.4487938
  0
ARC
  8
LAYER_1
 10
444.8717
 20
-23.3384
 40
0.6356
 50
268.1860073
 51
306.6591483
  0
ARC
  8
LAYER_1
 10
444.8207
 20
-23.3285
 40
0.675
 50
309.629052
 51
331.4006668
  0
ARC
  8
LAYER_1
 10
444.3867
 20
-23.1045
 40
1.1632
 50
331.9476846
 51
352.4570641
  0
LINE
  8
LAYER_1
 10
445.5399
 20
-23.2572
 11
445.8732
 21
-23.2572
  0
ARC
  8
LAYER_1
 10
444.6899
 20
-23.1881
 40
1.1853
 50
324.4684924
 51
356.6593605
  0
ARC
  8
LAYER_1
 10
445.0644
 20
-23.4016
 40
0.7577
 50
308.8646969
 51
321.14453
  0
ARC
  8
LAYER_1
 10
444.8838
 20
-23.1841
 40
1.0405
 50
269.4444518
 51
309.0942617
  0
ARC
  8
LAYER_1
 10
444.8495
 20
-23.0049
 40
1.2199
 50
239.4731668
 51
271.135496
  0
ARC
  8
LAYER_1
 10
444.7556
 20
-23.2304
 40
0.9785
 50
231.0725901
 51
237.5015114
  0
ARC
  8
LAYER_1
 10
444.7777
 20
-23.2067
 40
1.0108
 50
196.2036012
 51
230.9401338
  0
ARC
  8
LAYER_1
 10
445.3289
 20
-23.0352
 40
1.588
 50
178.9563335
 51
196.5964913
  0
ARC
  8
LAYER_1
 10
445.2047
 20
-22.9715
 40
1.4639
 50
152.2515429
 51
181.3630737
  0
ARC
  8
LAYER_1
 10
444.7547
 20
-22.7845
 40
0.9796
 50
128.808818
 51
149.6794954
  0
ARC
  8
LAYER_1
 10
444.8599
 20
-22.9235
 40
1.1539
 50
88.20218716
 51
128.5493308
  0
ARC
  8
LAYER_1
 10
444.9169
 20
-22.8592
 40
1.0892
 50
57.48337982
 51
91.09649987
  0
ARC
  8
LAYER_1
 10
444.9853
 20
-22.701
 40
0.9195
 50
51.1229112
 51
55.77503012
  0
ENDBLK
  0
BLOCK
  8
LAYER_1
  2
AIGNBL0103001A
 70
64
 10
0
 20
0
 30
0
  3
AIGNBL0103001A
  0
LINE
  8
LAYER_1
 10
446.9394
 20
-22.039
 11
446.5619
 21
-22.039
  0
LINE
  8
LAYER_1
 10
446.5619
 20
-22.039
 11
446.5619
 21
-21.7702
  0
LINE
  8
LAYER_1
 10
446.5619
 20
-21.7702
 11
446.9394
 21
-21.7702
  0
LINE
  8
LAYER_1
 10
446.9394
 20
-21.7702
 11
446.9394
 21
-21.0895
  0
LINE
  8
LAYER_1
 10
446.9394
 20
-21.0895
 11
447.2502
 21
-21.0895
  0
LINE
  8
LAYER_1
 10
447.2502
 20
-21.0895
 11
447.2502
 21
-21.7702
  0
LINE
  8
LAYER_1
 10
447.2502
 20
-21.7702
 11
447.8944
 21
-21.7702
  0
LINE
  8
LAYER_1
 10
447.8944
 20
-21.7702
 11
447.8944
 21
-22.039
  0
LINE
  8
LAYER_1
 10
447.8944
 20
-22.039
 11
447.2502
 21
-22.039
  0
LINE
  8
LAYER_1
 10
447.2502
 20
-22.039
 11
447.2502
 21
-23.7408
  0
ARC
  8
LAYER_1
 10
447.4454
 20
-23.7545
 40
0.1957
 50
175.9776718
 51
228.9540035
  0
ARC
  8
LAYER_1
 10
447.506
 20
-23.6063
 40
0.3511
 50
237.4176742
 51
275.3977506
  0
ARC
  8
LAYER_1
 10
447.4669
 20
-21.9029
 40
2.0541
 50
272.0117864
 51
283.2844742
  0
LINE
  8
LAYER_1
 10
447.9389
 20
-23.9021
 11
447.9389
 21
-24.1708
  0
ARC
  8
LAYER_1
 10
447.5303
 20
-22.6553
 40
1.5697
 50
268.6889408
 51
285.0880874
  0
ARC
  8
LAYER_1
 10
447.4481
 20
-23.5253
 40
0.7007
 50
237.6083723
 51
273.7890716
  0
ARC
  8
LAYER_1
 10
447.321
 20
-23.8256
 40
0.3828
 50
175.3554851
 51
229.5709398
  0
LINE
  8
LAYER_1
 10
446.9394
 20
-23.7946
 11
446.9394
 21
-22.039
  0
ENDBLK
  0
BLOCK
  8
LAYER_1
  2
AIGNBL0103001B
 70
64
 10
0
 20
0
 30
0
  3
AIGNBL0103001B
  0
ARC
  8
LAYER_1
 10
449.7634
 20
-22.9557
 40
1.1855
 50
50.64686175
 51
90.17336741
  0
ARC
  8
LAYER_1
 10
449.9078
 20
-22.7809
 40
0.9587
 50
14.76355825
 51
50.69855756
  0
ARC
  8
LAYER_1
 10
449.2959
 20
-22.9626
 40
1.5969
 50
359.0755011
 51
15.47390009
  0
ARC
  8
LAYER_1
 10
449.4041
 20
-23.0264
 40
1.489
 50
332.9248548
 51
1.463570552
  0
ARC
  8
LAYER_1
 10
449.9464
 20
-23.2528
 40
0.9042
 50
308.9730079
 51
330.0558863
  0
ARC
  8
LAYER_1
 10
449.7609
 20
-23.0318
 40
1.1927
 50
269.9452732
 51
309.2210309
  0
ARC
  8
LAYER_1
 10
449.7559
 20
-23.0405
 40
1.184
 50
230.6294792
 51
270.1898386
  0
ARC
  8
LAYER_1
 10
449.6053
 20
-23.2214
 40
0.9487
 50
194.5571008
 51
230.7288295
  0
ARC
  8
LAYER_1
 10
450.2876
 20
-23.0174
 40
1.6605
 50
179.000404
 51
195.4530529
  0
ARC
  8
LAYER_1
 10
450.0614
 20
-22.9524
 40
1.4346
 50
152.4394255
 51
181.4374845
  0
ARC
  8
LAYER_1
 10
449.5775
 20
-22.7501
 40
0.9131
 50
128.8475503
 51
149.6425845
  0
ARC
  8
LAYER_1
 10
449.7588
 20
-22.962
 40
1.1918
 50
89.95079209
 51
129.243361
  0
ARC
  8
LAYER_1
 10
449.7298
 20
-22.7921
 40
0.7488
 50
129.9530716
 51
170.501807
  0
ARC
  8
LAYER_1
 10
450.4815
 20
-22.975
 40
1.5214
 50
168.3798418
 51
180.5055652
  0
ARC
  8
LAYER_1
 10
450.172
 20
-23.0333
 40
1.2126
 50
177.8782097
 51
209.7643113
  0
ARC
  8
LAYER_1
 10
449.655
 20
-23.2744
 40
0.6459
 50
213.9706427
 51
231.0555735
  0
ARC
  8
LAYER_1
 10
449.7527
 20
-23.158
 40
0.7978
 50
230.8483722
 51
270.5075942
  0
ARC
  8
LAYER_1
 10
449.7653
 20
-23.1535
 40
0.8023
 50
269.6074376
 51
309.036596
  0
ARC
  8
LAYER_1
 10
449.7877
 20
-23.2037
 40
0.7493
 50
310.1265727
 51
351.2098289
  0
ARC
  8
LAYER_1
 10
448.9534
 20
-23.0034
 40
1.606
 50
348.6936027
 51
0.5348985138
  0
ARC
  8
LAYER_1
 10
449.3979
 20
-22.9466
 40
1.1621
 50
357.9389673
 51
30.40330024
  0
ARC
  8
LAYER_1
 10
449.8552
 20
-22.7318
 40
0.6606
 50
34.40761089
 51
51.03835046
  0
ARC
  8
LAYER_1
 10
449.7657
 20
-22.8403
 40
0.8013
 50
50.93743053
 51
90.41853585
  0
ARC
  8
LAYER_1
 10
449.7545
 20
-22.8419
 40
0.8029
 50
89.62325414
 51
129.0207794
  0
ENDBLK
  0
BLOCK
  8
LAYER_1
  2
AIGNBL0103001C
 70
64
 10
0
 20
0
 30
0
  3
AIGNBL0103001C
  0
ARC
  8
LAYER_1
 10
452.9719
 20
-23.1219
 40
1.0477
 50
91.97097397
 51
126.0381327
  0
ARC
  8
LAYER_1
 10
452.9171
 20
-23.0092
 40
0.9246
 50
127.3965684
 51
128.9125782
  0
ARC
  8
LAYER_1
 10
453.1569
 20
-23.2917
 40
1.295
 50
129.3182706
 51
159.9112198
  0
ARC
  8
LAYER_1
 10
453.4923
 20
-23.4569
 40
1.6673
 50
158.5385303
 51
163.6809605
  0
LINE
  8
LAYER_1
 10
451.8922
 20
-22.9884
 11
451.8922
 21
-24.2245
  0
LINE
  8
LAYER_1
 10
451.8922
 20
-24.2245
 11
451.5813
 21
-24.2245
  0
LINE
  8
LAYER_1
 10
451.5813
 20
-24.2245
 11
451.5813
 21
-21.7702
  0
LINE
  8
LAYER_1
 10
451.5813
 20
-21.7702
 11
451.8922
 21
-21.7702
  0
LINE
  8
LAYER_1
 10
451.8922
 20
-21.7702
 11
451.8922
 21
-22.4152
  0
ARC
  8
LAYER_1
 10
452.8133
 20
-22.8597
 40
1.0227
 50
126.6359012
 51
154.2400399
  0
ARC
  8
LAYER_1
 10
452.9651
 20
-23.0059
 40
1.2311
 50
96.7404878
 51
128.2430425
  0
ARC
  8
LAYER_1
 10
453.0655
 20
-23.4259
 40
1.6608
 50
94.47684547
 51
98.48208305
  0
LINE
  8
LAYER_1
 10
452.9359
 20
-21.7702
 11
452.9359
 21
-22.0748
  0
ENDBLK
  0
BLOCK
  8
LAYER_1
  2
AIGNBL0103001D
 70
64
 10
0
 20
0
 30
0
  3
AIGNBL0103001D
  0
ARC
  8
LAYER_1
 10
456.9929
 20
-22.0945
 40
1.3727
 50
22.00928352
 51
51.65969012
  0
ARC
  8
LAYER_1
 10
456.9602
 20
-22.0818
 40
1.3984
 50
3.959104602
 51
21.02496721
  0
LINE
  8
LAYER_1
 10
458.3553
 20
-21.9852
 11
457.9999
 21
-21.9852
  0
ARC
  8
LAYER_1
 10
456.7105
 20
-22.1956
 40
1.3064
 50
9.267186356
 51
39.89445705
  0
ARC
  8
LAYER_1
 10
456.9756
 20
-22.023
 40
0.993
 50
42.06414495
 51
51.04925166
  0
ARC
  8
LAYER_1
 10
456.992
 20
-22.0027
 40
0.967
 50
51.0477255
 51
90.81531027
  0
ARC
  8
LAYER_1
 10
456.978
 20
-22.0428
 40
1.007
 50
89.99123167
 51
129.7519824
  0
ARC
  8
LAYER_1
 10
457.0562
 20
-22.1499
 40
1.1394
 50
129.3297292
 51
161.8488038
  0
ARC
  8
LAYER_1
 10
457.8897
 20
-22.444
 40
2.0231
 50
161.2876906
 51
181.7182113
  0
ARC
  8
LAYER_1
 10
457.9686
 20
-22.5593
 40
2.1018
 50
178.5111965
 51
202.8880035
  0
ARC
  8
LAYER_1
 10
456.9124
 20
-22.9519
 40
0.9773
 50
205.7650824
 51
230.4033087
  0
ARC
  8
LAYER_1
 10
456.8986
 20
-22.9366
 40
0.9805
 50
231.5941416
 51
266.9277414
  0
ARC
  8
LAYER_1
 10
456.9505
 20
-22.6406
 40
1.2794
 50
265.3205123
 51
270.2395767
  0
ARC
  8
LAYER_1
 10
456.9768
 20
-22.8304
 40
1.0898
 50
268.8971713
 51
302.5081969
  0
ARC
  8
LAYER_1
 10
457.0454
 20
-22.9893
 40
0.9193
 50
304.2242989
 51
308.8774009
  0
ARC
  8
LAYER_1
 10
457.0039
 20
-22.9651
 40
0.9644
 50
309.8958004
 51
345.7915613
  0
ARC
  8
LAYER_1
 10
456.1771
 20
-22.6884
 40
1.8349
 50
343.752196
 51
353.4139551
  0
LINE
  8
LAYER_1
 10
457.9999
 20
-22.8989
 11
458.3553
 21
-22.8989
  0
ARC
  8
LAYER_1
 10
456.5898
 20
-22.7696
 40
1.7702
 50
329.5075293
 51
355.8116395
  0
ARC
  8
LAYER_1
 10
457.2086
 20
-23.081
 40
1.08
 50
309.0241055
 51
327.0834151
  0
ARC
  8
LAYER_1
 10
457.0186
 20
-22.8322
 40
1.3929
 50
268.3359211
 51
308.6509953
  0
ARC
  8
LAYER_1
 10
456.9619
 20
-22.6665
 40
1.5581
 50
242.6656254
 51
270.5997675
  0
ARC
  8
LAYER_1
 10
456.9312
 20
-22.7793
 40
1.444
 50
231.0394007
 51
241.6937297
  0
ARC
  8
LAYER_1
 10
456.7898
 20
-22.9707
 40
1.2062
 50
198.8298963
 51
230.5439311
  0
ARC
  8
LAYER_1
 10
457.5363
 20
-22.6715
 40
2.0099
 50
188.8828728
 51
200.0356265
  0
ARC
  8
LAYER_1
 10
458.6852
 20
-22.4909
 40
3.1728
 50
179.6024255
 51
188.9007786
  0
ARC
  8
LAYER_1
 10
457.6417
 20
-22.4378
 40
2.1295
 50
156.9961882
 51
180.8363253
  0
ARC
  8
LAYER_1
 10
457.0605
 20
-22.2374
 40
1.5168
 50
128.7059702
 51
155.3860587
  0
ARC
  8
LAYER_1
 10
457.0272
 20
-22.1611
 40
1.4366
 50
100.5848343
 51
129.571126
  0
ARC
  8
LAYER_1
 10
456.9775
 20
-22.0356
 40
1.3044
 50
89.97128554
 51
99.45371105
  0
ARC
  8
LAYER_1
 10
456.9968
 20
-22.1561
 40
1.425
 50
61.29295446
 51
90.74801616
  0
ARC
  8
LAYER_1
 10
457.0455
 20
-22.0107
 40
1.2744
 50
51.18098152
 51
60.07445683
  0
ENDBLK
  0
BLOCK
  8
LAYER_1
  2
AIGNBL0103001E
 70
64
 10
0
 20
0
 30
0
  3
AIGNBL0103001E
  0
ARC
  8
LAYER_1
 10
460.18
 20
-22.9558
 40
1.1856
 50
50.64943832
 51
90.17558266
  0
ARC
  8
LAYER_1
 10
460.3245
 20
-22.7809
 40
0.9587
 50
14.76355825
 51
50.69855756
  0
ARC
  8
LAYER_1
 10
459.7126
 20
-22.9626
 40
1.5969
 50
359.0755011
 51
15.47390009
  0
ARC
  8
LAYER_1
 10
459.8208
 20
-23.0264
 40
1.489
 50
332.9248548
 51
1.463570552
  0
ARC
  8
LAYER_1
 10
460.3631
 20
-23.2528
 40
0.9042
 50
308.9730079
 51
330.0558863
  0
ARC
  8
LAYER_1
 10
460.1776
 20
-23.0318
 40
1.1927
 50
269.9408903
 51
309.2206234
  0
ARC
  8
LAYER_1
 10
460.1725
 20
-23.0405
 40
1.184
 50
230.6294792
 51
270.1898386
  0
ARC
  8
LAYER_1
 10
460.0223
 20
-23.2211
 40
0.9491
 50
194.5638459
 51
230.717391
  0
ARC
  8
LAYER_1
 10
460.7037
 20
-23.0173
 40
1.6601
 50
179.0015303
 51
195.4587807
  0
ARC
  8
LAYER_1
 10
460.4779
 20
-22.9525
 40
1.4344
 50
152.4345343
 51
181.4354742
  0
ARC
  8
LAYER_1
 10
459.9946
 20
-22.7504
 40
0.9135
 50
128.8594004
 51
149.6424325
  0
ARC
  8
LAYER_1
 10
460.1754
 20
-22.962
 40
1.1918
 50
89.95079209
 51
129.243361
  0
ARC
  8
LAYER_1
 10
460.1467
 20
-22.7921
 40
0.7489
 50
129.9690508
 51
170.50432
  0
ARC
  8
LAYER_1
 10
460.8985
 20
-22.975
 40
1.5216
 50
168.3814377
 51
180.5052229
  0
ARC
  8
LAYER_1
 10
460.589
 20
-23.0333
 40
1.2129
 50
177.8795579
 51
209.756134
  0
ARC
  8
LAYER_1
 10
460.0717
 20
-23.2745
 40
0.6459
 50
213.9597053
 51
231.0404803
  0
ARC
  8
LAYER_1
 10
460.1694
 20
-23.1578
 40
0.798
 50
230.8526879
 51
270.5032785
  0
ARC
  8
LAYER_1
 10
460.182
 20
-23.1534
 40
0.8024
 50
269.6036594
 51
309.0333707
  0
ARC
  8
LAYER_1
 10
460.204
 20
-23.2035
 40
0.7497
 50
310.1410327
 51
351.1994917
  0
ARC
  8
LAYER_1
 10
459.3709
 20
-23.0034
 40
1.6051
 50
348.6867346
 51
0.5342940393
  0
ARC
  8
LAYER_1
 10
459.8146
 20
-22.9467
 40
1.1621
 50
357.9422659
 51
30.40728733
  0
ARC
  8
LAYER_1
 10
460.2715
 20
-22.732
 40
0.661
 50
34.40395552
 51
51.02323355
  0
ARC
  8
LAYER_1
 10
460.1823
 20
-22.8403
 40
0.8013
 50
50.93832654
 51
90.42464333
  0
ARC
  8
LAYER_1
 10
460.1712
 20
-22.8421
 40
0.8031
 50
89.62768797
 51
129.0163456
  0
ENDBLK
  0
BLOCK
  8
LAYER_1
  2
AIGNBL0103001F
 70
64
 10
0
 20
0
 30
0
  3
AIGNBL0103001F
  0
ARC
  8
LAYER_1
 10
463.3885
 20
-23.1216
 40
1.0474
 50
91.96502422
 51
126.0433979
  0
ARC
  8
LAYER_1
 10
463.3332
 20
-23.008
 40
0.9233
 50
127.4120519
 51
128.9296933
  0
ARC
  8
LAYER_1
 10
463.5739
 20
-23.292
 40
1.2955
 50
129.3197231
 51
159.9017807
  0
ARC
  8
LAYER_1
 10
463.9104
 20
-23.4579
 40
1.669
 50
158.5258794
 51
163.6634749
  0
LINE
  8
LAYER_1
 10
462.3088
 20
-22.9884
 11
462.3088
 21
-24.2245
  0
LINE
  8
LAYER_1
 10
462.3088
 20
-24.2245
 11
461.998
 21
-24.2245
  0
LINE
  8
LAYER_1
 10
461.998
 20
-24.2245
 11
461.998
 21
-21.7702
  0
LINE
  8
LAYER_1
 10
461.998
 20
-21.7702
 11
462.3088
 21
-21.7702
  0
LINE
  8
LAYER_1
 10
462.3088
 20
-21.7702
 11
462.3088
 21
-22.4152
  0
ARC
  8
LAYER_1
 10
463.231
 20
-22.8608
 40
1.0242
 50
126.6453524
 51
154.2124873
  0
ARC
  8
LAYER_1
 10
463.3815
 20
-23.0053
 40
1.2305
 50
96.73275868
 51
128.2510725
  0
ARC
  8
LAYER_1
 10
463.4823
 20
-23.4264
 40
1.6612
 50
94.4770501
 51
98.4813672
  0
LINE
  8
LAYER_1
 10
463.3526
 20
-21.7702
 11
463.3526
 21
-22.0748
  0
ENDBLK
  0
BLOCK
  8
LAYER_1
  2
AIGNBL01030020
 70
64
 10
0
 20
0
 30
0
  3
AIGNBL01030020
  0
LINE
  8
LAYER_1
 10
464.3521
 20
-24.8874
 11
464.0413
 21
-24.8874
  0
LINE
  8
LAYER_1
 10
464.0413
 20
-24.8874
 11
464.0413
 21
-21.7702
  0
LINE
  8
LAYER_1
 10
464.0413
 20
-21.7702
 11
464.3521
 21
-21.7702
  0
LINE
  8
LAYER_1
 10
464.3521
 20
-21.7702
 11
464.3521
 21
-22.236
  0
ARC
  8
LAYER_1
 10
465.2714
 20
-22.8261
 40
1.0924
 50
128.1682586
 51
147.3013471
  0
ARC
  8
LAYER_1
 10
465.1493
 20
-22.6444
 40
0.8742
 50
89.84713268
 51
129.236819
  0
ARC
  8
LAYER_1
 10
465.1687
 20
-22.7345
 40
0.9645
 50
55.40604137
 51
91.0140482
  0
ARC
  8
LAYER_1
 10
465.2107
 20
-22.6375
 40
0.861
 50
51.11842627
 51
54.045517
  0
ARC
  8
LAYER_1
 10
465.1133
 20
-22.7533
 40
1.0123
 50
16.23203609
 51
50.93564151
  0
ARC
  8
LAYER_1
 10
464.5659
 20
-22.9239
 40
1.5855
 50
358.9626685
 51
16.62339195
  0
ARC
  8
LAYER_1
 10
464.4611
 20
-22.9967
 40
1.6907
 50
334.4981938
 51
1.496000273
  0
ARC
  8
LAYER_1
 10
465.1545
 20
-23.2756
 40
0.9459
 50
309.1102786
 51
331.6600402
  0
ARC
  8
LAYER_1
 10
465.1433
 20
-23.2576
 40
0.967
 50
269.1846897
 51
308.9522745
  0
ARC
  8
LAYER_1
 10
465.1302
 20
-23.3413
 40
0.8832
 50
230.9827884
 51
269.951588
  0
ARC
  8
LAYER_1
 10
465.0336
 20
-23.4216
 40
0.7604
 50
206.3247072
 51
232.827684
  0
LINE
  8
LAYER_1
 10
464.3521
 20
-23.7588
 11
464.3521
 21
-24.8874
  0
ARC
  8
LAYER_1
 10
465.1238
 20
-23.3217
 40
0.6365
 50
309.5487948
 51
332.3183397
  0
ARC
  8
LAYER_1
 10
464.7995
 20
-23.1569
 40
1.0003
 50
332.5883075
 51
348.2788412
  0
ARC
  8
LAYER_1
 10
463.9312
 20
-22.9778
 40
1.8868
 50
348.309497
 51
0.7638614413
  0
ARC
  8
LAYER_1
 10
464.3246
 20
-22.9199
 40
1.4936
 50
358.745005
 51
14.80219719
  0
ARC
  8
LAYER_1
 10
465.0814
 20
-22.7138
 40
0.7093
 50
14.32134294
 51
48.52360238
  0
ARC
  8
LAYER_1
 10
465.1427
 20
-22.6922
 40
0.6533
 50
51.30164547
 51
91.16128832
  0
ARC
  8
LAYER_1
 10
465.1219
 20
-22.773
 40
0.7341
 50
89.41016093
 51
128.7076416
  0
ARC
  8
LAYER_1
 10
465.1724
 20
-22.8189
 40
0.8015
 50
129.4672988
 51
169.0444422
  0
ARC
  8
LAYER_1
 10
465.7929
 20
-22.9752
 40
1.4408
 50
167.6325628
 51
180.5241893
  0
ARC
  8
LAYER_1
 10
465.5605
 20
-23.0267
 40
1.209
 50
178.1847678
 51
209.9064193
  0
ARC
  8
LAYER_1
 10
465.1193
 20
-23.2277
 40
0.7278
 50
213.5084044
 51
231.1608171
  0
ARC
  8
LAYER_1
 10
465.111
 20
-23.2525
 40
0.7034
 50
230.4254976
 51
269.6828744
  0
ARC
  8
LAYER_1
 10
465.1171
 20
-23.2923
 40
0.6636
 50
269.1350422
 51
308.3772055
  0
ENDBLK
  0
BLOCK
  8
LAYER_1
  2
AIGNBL01030021
 70
64
 10
0
 20
0
 30
0
  3
AIGNBL01030021
  0
LINE
  8
LAYER_1
 10
467.2837
 20
-23.8483
 11
467.2837
 21
-24.2245
  0
LINE
  8
LAYER_1
 10
467.2837
 20
-24.2245
 11
466.8395
 21
-24.2245
  0
LINE
  8
LAYER_1
 10
466.8395
 20
-24.2245
 11
466.8395
 21
-23.8483
  0
LINE
  8
LAYER_1
 10
466.8395
 20
-23.8483
 11
467.2837
 21
-23.8483
  0
ENDBLK
  0
BLOCK
  8
LAYER_1
  2
AIGNBL01020003
 70
64
 10
0
 20
0
 30
0
  3
AIGNBL01020003
  0
LINE
  8
LAYER_1
 10
339.2705
 20
-26.6172
 11
469.2192
 21
-26.6172
  0
LINE
  8
LAYER_1
 10
339.2705
 20
-66.6014
 11
339.2705
 21
-16.6211
  0
LINE
  8
LAYER_1
 10
339.2705
 20
-16.6211
 11
469.2192
 21
-16.6211
  0
LINE
  8
LAYER_1
 10
359.2626
 20
-66.6014
 11
359.2626
 21
-26.6172
  0
LINE
  8
LAYER_1
 10
424.2369
 20
-66.6014
 11
424.2369
 21
-26.6172
  0
LINE
  8
LAYER_1
 10
404.2448
 20
-66.6014
 11
404.2448
 21
-26.6172
  0
LINE
  8
LAYER_1
 10
339.2705
 20
-36.6132
 11
469.2192
 21
-36.6132
  0
LINE
  8
LAYER_1
 10
339.2705
 20
-46.6093
 11
469.2192
 21
-46.6093
  0
LINE
  8
LAYER_1
 10
339.2705
 20
-56.6053
 11
469.2192
 21
-56.6053
  0
ENDBLK
  0
BLOCK
  8
LAYER_1
  2
AIGNBL01020004
 70
64
 10
0
 20
0
 30
0
  3
AIGNBL01020004
  0
INSERT
  8
LAYER_1
  2
AIGNBL01030005
 10
0
 20
0
 30
0
  0
INSERT
  8
LAYER_1
  2
AIGNBL01030006
 10
0
 20
0
 30
0
  0
LINE
  8
LAYER_1
 10
364.2316
 20
-18.593
 11
364.2316
 21
-19.3256
  0
LINE
  8
LAYER_1
 10
364.2316
 20
-19.3256
 11
366.1829
 21
-19.3256
  0
LINE
  8
LAYER_1
 10
366.1829
 20
-19.3256
 11
366.1829
 21
-19.6099
  0
LINE
  8
LAYER_1
 10
366.1829
 20
-19.6099
 11
363.7498
 21
-19.6099
  0
LINE
  8
LAYER_1
 10
363.7498
 20
-19.6099
 11
363.7498
 21
-21.1532
  0
LINE
  8
LAYER_1
 10
363.7498
 20
-21.1532
 11
364.5768
 21
-21.1532
  0
LINE
  8
LAYER_1
 10
364.5768
 20
-21.1532
 11
364.5768
 21
-20.3293
  0
LINE
  8
LAYER_1
 10
364.5768
 20
-20.3293
 11
366.1791
 21
-20.3293
  0
LINE
  8
LAYER_1
 10
366.1791
 20
-20.3293
 11
366.1791
 21
-21.951
  0
LINE
  8
LAYER_1
 10
366.1791
 20
-21.951
 11
367.0965
 21
-21.951
  0
LINE
  8
LAYER_1
 10
367.0965
 20
-21.951
 11
367.0965
 21
-20.3293
  0
LINE
  8
LAYER_1
 10
367.0965
 20
-20.3293
 11
368.7118
 21
-20.3293
  0
LINE
  8
LAYER_1
 10
368.7118
 20
-20.3293
 11
368.7118
 21
-21.1532
  0
LINE
  8
LAYER_1
 10
368.7118
 20
-21.1532
 11
369.5774
 21
-21.1532
  0
LINE
  8
LAYER_1
 10
369.5774
 20
-21.1532
 11
369.5774
 21
-19.6099
  0
LINE
  8
LAYER_1
 10
369.5774
 20
-19.6099
 11
367.1003
 21
-19.6099
  0
LINE
  8
LAYER_1
 10
367.1003
 20
-19.6099
 11
367.1003
 21
-19.3256
  0
LINE
  8
LAYER_1
 10
367.1003
 20
-19.3256
 11
369.0579
 21
-19.3256
  0
LINE
  8
LAYER_1
 10
369.0579
 20
-19.3256
 11
369.0579
 21
-18.593
  0
LINE
  8
LAYER_1
 10
369.0579
 20
-18.593
 11
364.2316
 21
-18.593
  0
LINE
  8
LAYER_1
 10
364.7286
 20
-21.0494
 11
365.9083
 21
-21.0494
  0
LINE
  8
LAYER_1
 10
365.9083
 20
-21.0494
 11
365.9083
 21
-20.5839
  0
LINE
  8
LAYER_1
 10
365.9083
 20
-20.5839
 11
364.7286
 21
-20.5839
  0
LINE
  8
LAYER_1
 10
364.7286
 20
-20.5839
 11
364.7286
 21
-21.0494
  0
LINE
  8
LAYER_1
 10
364.5863
 20
-21.7545
 11
365.9082
 21
-21.7545
  0
LINE
  8
LAYER_1
 10
365.9082
 20
-21.7545
 11
365.9082
 21
-21.2892
  0
LINE
  8
LAYER_1
 10
365.9082
 20
-21.2892
 11
364.5863
 21
-21.2892
  0
LINE
  8
LAYER_1
 10
364.5863
 20
-21.2892
 11
364.5863
 21
-21.7545
  0
LINE
  8
LAYER_1
 10
367.3672
 20
-21.0494
 11
368.5469
 21
-21.0494
  0
LINE
  8
LAYER_1
 10
368.5469
 20
-21.0494
 11
368.5469
 21
-20.5839
  0
LINE
  8
LAYER_1
 10
368.5469
 20
-20.5839
 11
367.3672
 21
-20.5839
  0
LINE
  8
LAYER_1
 10
367.3672
 20
-20.5839
 11
367.3672
 21
-21.0494
  0
LINE
  8
LAYER_1
 10
367.3672
 20
-21.7545
 11
368.6955
 21
-21.7545
  0
LINE
  8
LAYER_1
 10
368.6955
 20
-21.7545
 11
368.6955
 21
-21.2892
  0
LINE
  8
LAYER_1
 10
368.6955
 20
-21.2892
 11
367.3672
 21
-21.2892
  0
LINE
  8
LAYER_1
 10
367.3672
 20
-21.2892
 11
367.3672
 21
-21.7545
  0
INSERT
  8
LAYER_1
  2
AIGNBL01030007
 10
0
 20
0
 30
0
  0
INSERT
  8
LAYER_1
  2
AIGNBL01030008
 10
0
 20
0
 30
0
  0
INSERT
  8
LAYER_1
  2
AIGNBL01030009
 10
0
 20
0
 30
0
  0
LINE
  8
LAYER_1
 10
341.8942
 20
-18.5614
 11
343.4346
 21
-18.5614
  0
LINE
  8
LAYER_1
 10
343.4346
 20
-18.5614
 11
345.5421
 21
-23.0789
  0
LINE
  8
LAYER_1
 10
345.5421
 20
-23.0789
 11
345.5421
 21
-22.3097
  0
LINE
  8
LAYER_1
 10
345.5421
 20
-22.3097
 11
347.0847
 21
-22.3097
  0
LINE
  8
LAYER_1
 10
347.0847
 20
-22.3097
 11
347.0847
 21
-24.6193
  0
LINE
  8
LAYER_1
 10
347.0847
 20
-24.6193
 11
344.7769
 21
-24.6193
  0
LINE
  8
LAYER_1
 10
344.7769
 20
-24.6193
 11
343.4307
 21
-21.7969
  0
LINE
  8
LAYER_1
 10
343.4307
 20
-21.7969
 11
343.4307
 21
-24.6193
  0
LINE
  8
LAYER_1
 10
343.4307
 20
-24.6193
 11
341.8942
 21
-24.6193
  0
LINE
  8
LAYER_1
 10
341.8942
 20
-24.6193
 11
341.8942
 21
-18.5614
  0
INSERT
  8
LAYER_1
  2
AIGNBL0103000A
 10
0
 20
0
 30
0
  0
ARC
  8
LAYER_1
 10
395.6228
 20
-22.2421
 40
1.991
 50
311.8536983
 51
336.66565
  0
ARC
  8
LAYER_1
 10
395.2143
 20
-22.0387
 40
2.4468
 50
336.0820229
 51
355.050887
  0
LINE
  8
LAYER_1
 10
397.652
 20
-22.2498
 11
397.652
 21
-19.0493
  0
LINE
  8
LAYER_1
 10
397.652
 20
-19.0493
 11
396.4658
 21
-19.0493
  0
LINE
  8
LAYER_1
 10
396.4658
 20
-19.0493
 11
396.4658
 21
-21.9151
  0
ARC
  8
LAYER_1
 10
394.9478
 20
-21.874
 40
1.5185
 50
331.8956217
 51
358.4504934
  0
ARC
  8
LAYER_1
 10
395.7367
 20
-22.2196
 40
0.6633
 50
317.1782762
 51
326.1116703
  0
ARC
  8
LAYER_1
 10
394.7907
 20
-21.265
 40
2.0068
 50
296.3435913
 51
315.5475613
  0
LINE
  8
LAYER_1
 10
395.6812
 20
-23.0634
 11
395.6812
 21
-24.2581
  0
ARC
  8
LAYER_1
 10
395.7315
 20
-23.1228
 40
1.1364
 50
267.460987
 51
280.8278078
  0
ARC
  8
LAYER_1
 10
395.6077
 20
-22.387
 40
1.8825
 50
280.3227292
 51
303.5087591
  0
ARC
  8
LAYER_1
 10
395.3215
 20
-21.8982
 40
2.4483
 50
302.7778523
 51
311.7357705
  0
ARC
  8
LAYER_1
 10
383.8582
 20
-21.2369
 40
1.9121
 50
200.4586691
 51
212.6743406
  0
ARC
  8
LAYER_1
 10
360.8299
 20
-29.6321
 40
22.5988
 50
19.99339328
 51
22.95988574
  0
ARC
  8
LAYER_1
 10
378.6335
 20
-22.195
 40
3.306
 50
24.64219126
 51
41.47959493
  0
ARC
  8
LAYER_1
 10
379.7074
 20
-21.3145
 40
1.9189
 50
43.02136381
 51
66.4525374
  0
ARC
  8
LAYER_1
 10
379.7452
 20
-21.2722
 40
1.8651
 50
66.99773131
 51
74.27463074
  0
ARC
  8
LAYER_1
 10
379.3948
 20
-22.5663
 40
3.2057
 50
74.51389392
 51
94.05361784
  0
ARC
  8
LAYER_1
 10
379.436
 20
-23.458
 40
4.0982
 50
93.74752603
 51
109.4964459
  0
ARC
  8
LAYER_1
 10
379.3155
 20
-23.2494
 40
3.8616
 50
108.8443826
 51
117.7785401
  0
ARC
  8
LAYER_1
 10
368.4808
 20
-19.7127
 40
9.0358
 50
353.3545297
 51
359.2384651
  0
ARC
  8
LAYER_1
 10
374.5967
 20
-20.478
 40
2.873
 50
340.8545036
 51
354.3986112
  0
ARC
  8
LAYER_1
 10
375.9845
 20
-20.8638
 40
1.4382
 50
308.1960555
 51
337.240372
  0
ARC
  8
LAYER_1
 10
376.186
 20
-21.1609
 40
1.0804
 50
298.9411123
 51
309.5405453
  0
LINE
  8
LAYER_1
 10
376.7088
 20
-22.1064
 11
376.7088
 21
-23.3788
  0
ARC
  8
LAYER_1
 10
376.133
 20
-20.8091
 40
2.6334
 50
282.629217
 51
311.7889792
  0
ARC
  8
LAYER_1
 10
376.7481
 20
-21.591
 40
1.6417
 50
313.9680024
 51
325.0993696
  0
ARC
  8
LAYER_1
 10
376.075
 20
-21.1667
 40
2.4368
 50
325.9722368
 51
337.2435268
  0
ARC
  8
LAYER_1
 10
374.4452
 20
-20.4759
 40
4.207
 50
337.1535495
 51
344.91421
  0
ARC
  8
LAYER_1
 10
372.5495
 20
-19.9463
 40
6.1753
 50
344.7481064
 51
353.2474184
  0
ARC
  8
LAYER_1
 10
379.476
 20
-22.45
 40
1.947
 50
90.61781687
 51
114.0708883
  0
ARC
  8
LAYER_1
 10
379.4502
 20
-21.5938
 40
1.0907
 50
61.474306
 51
89.74539799
  0
ARC
  8
LAYER_1
 10
379.5976
 20
-21.2581
 40
0.7259
 50
38.2714468
 51
59.04055946
  0
ARC
  8
LAYER_1
 10
378.9476
 20
-21.7619
 40
1.5482
 50
25.3011504
 51
38.01183044
  0
ARC
  8
LAYER_1
 10
374.0025
 20
-24.0904
 40
7.0141
 50
19.69622915
 51
25.23323144
  0
ARC
  8
LAYER_1
 10
386.9461
 20
-19.5396
 40
6.7064
 50
199.0304142
 51
214.1619839
  0
ARC
  8
LAYER_1
 10
385.1883
 20
-20.5955
 40
4.6604
 50
215.5556146
 51
216.3864829
  0
ARC
  8
LAYER_1
 10
383.6855
 20
-21.6697
 40
2.8135
 50
216.9324038
 51
237.9526107
  0
ARC
  8
LAYER_1
 10
383.2601
 20
-22.3143
 40
2.0414
 50
238.4737585
 51
260.7134162
  0
ARC
  8
LAYER_1
 10
383.0587
 20
-23.1943
 40
1.1418
 50
263.5627283
 51
265.8887812
  0
LINE
  8
LAYER_1
 10
382.9768
 20
-24.3332
 11
382.9768
 21
-22.9742
  0
ARC
  8
LAYER_1
 10
383.3434
 20
-22.147
 40
0.9048
 50
229.9708589
 51
246.0997112
  0
ARC
  8
LAYER_1
 10
384.4169
 20
-20.8366
 40
2.5987
 50
213.4542661
 51
230.4296508
  0
LINE
  8
LAYER_1
 10
382.0901
 20
-19.8796
 11
381.4745
 21
-19.8796
  0
LINE
  8
LAYER_1
 10
381.4745
 20
-19.8796
 11
381.3155
 21
-18.8814
  0
LINE
  8
LAYER_1
 10
381.3155
 20
-18.8814
 11
381.9318
 21
-18.8814
  0
LINE
  8
LAYER_1
 10
381.9318
 20
-18.8814
 11
382.0901
 21
-19.8796
  0
LINE
  8
LAYER_1
 10
383.0188
 20
-19.8796
 11
382.4029
 21
-19.8796
  0
LINE
  8
LAYER_1
 10
382.4029
 20
-19.8796
 11
382.2442
 21
-18.8814
  0
LINE
  8
LAYER_1
 10
382.2442
 20
-18.8814
 11
382.8606
 21
-18.8814
  0
LINE
  8
LAYER_1
 10
382.8606
 20
-18.8814
 11
383.0188
 21
-19.8796
  0
ARC
  8
LAYER_1
 10
383.3452
 20
-19.5626
 40
1.2598
 50
294.8462392
 51
325.7593989
  0
ARC
  8
LAYER_1
 10
383.5868
 20
-20.0818
 40
0.6873
 50
280.6862667
 51
294.7597554
  0
LINE
  8
LAYER_1
 10
383.7142
 20
-20.7571
 11
383.7142
 21
-22.0072
  0
ARC
  8
LAYER_1
 10
383.3879
 20
-19.5706
 40
2.4583
 50
277.6270469
 51
307.9992312
  0
ARC
  8
LAYER_1
 10
383.7857
 20
-20.2045
 40
1.7156
 50
310.5659115
 51
312.159519
  0
ARC
  8
LAYER_1
 10
383.3126
 20
-19.7505
 40
2.3702
 50
313.2688841
 51
336.1288754
  0
ARC
  8
LAYER_1
 10
382.549
 20
-19.2963
 40
3.254
 50
334.2571503
 51
342.7179381
  0
LINE
  8
LAYER_1
 10
385.6561
 20
-20.263
 11
388.0832
 21
-20.263
  0
ARC
  8
LAYER_1
 10
384.0183
 20
-20.476
 40
4.0705
 50
346.9025011
 51
2.999941785
  0
ARC
  8
LAYER_1
 10
385.3231
 20
-20.7848
 40
2.7296
 50
327.7013818
 51
347.0097259
  0
ARC
  8
LAYER_1
 10
386.118
 20
-21.2401
 40
1.8149
 50
312.9843281
 51
326.4412197
  0
ARC
  8
LAYER_1
 10
386.162
 20
-21.2473
 40
1.7799
 50
298.6772297
 51
312.1042011
  0
ARC
  8
LAYER_1
 10
385.719
 20
-20.4337
 40
2.7063
 50
288.7192833
 51
298.64049
  0
ARC
  8
LAYER_1
 10
385.0665
 20
-18.4569
 40
4.7879
 50
273.6020975
 51
288.52267
  0
ARC
  8
LAYER_1
 10
384.7612
 20
-16.1994
 40
7.062
 50
268.3271717
 51
274.9240462
  0
LINE
  8
LAYER_1
 10
384.555
 20
-23.2584
 11
384.555
 21
-24.3879
  0
ARC
  8
LAYER_1
 10
384.9661
 20
-16.1363
 40
8.2618
 50
267.1475499
 51
278.4142478
  0
ARC
  8
LAYER_1
 10
385.3877
 20
-18.8538
 40
5.5119
 50
278.2131806
 51
291.6024907
  0
ARC
  8
LAYER_1
 10
386.3117
 20
-21.293
 40
2.9041
 50
292.3703177
 51
310.8518436
  0
ARC
  8
LAYER_1
 10
386.898
 20
-22.0381
 40
1.9575
 50
312.1363704
 51
321.4360617
  0
ARC
  8
LAYER_1
 10
386.3493
 20
-21.2741
 40
2.8742
 50
316.3403134
 51
335.9447601
  0
ARC
  8
LAYER_1
 10
384.9732
 20
-20.6215
 40
4.3969
 50
335.488256
 51
350.554217
  0
ARC
  8
LAYER_1
 10
382.3156
 20
-20.0996
 40
7.1046
 50
349.9195385
 51
2.135290941
  0
ARC
  8
LAYER_1
 10
382.3137
 20
-20.0083
 40
7.1036
 50
1.398744845
 51
7.163066818
  0
LINE
  8
LAYER_1
 10
389.3619
 20
-19.1225
 11
384.6757
 21
-19.1225
  0
ARC
  8
LAYER_1
 10
379.5567
 20
-18.5724
 40
5.1485
 50
346.1208209
 51
353.8665991
  0
ARC
  8
LAYER_1
 10
382.5401
 20
-19.3399
 40
2.0683
 50
333.2294573
 51
346.9363389
  0
ARC
  8
LAYER_1
 10
377.3708
 20
-106.144
 40
86.7721
 50
78.78700631
 51
80.56640675
  0
LINE
  8
LAYER_1
 10
391.5931
 20
-20.5454
 11
391.5931
 21
-18.9096
  0
LINE
  8
LAYER_1
 10
391.5931
 20
-18.9096
 11
390.2958
 21
-18.9096
  0
LINE
  8
LAYER_1
 10
390.2958
 20
-18.9096
 11
390.2958
 21
-24.3878
  0
LINE
  8
LAYER_1
 10
390.2958
 20
-24.3878
 11
391.5931
 21
-24.3878
  0
LINE
  8
LAYER_1
 10
391.5931
 20
-24.3878
 11
391.5931
 21
-21.7936
  0
ARC
  8
LAYER_1
 10
391.8122
 20
-24.3619
 40
2.5777
 50
85.26912846
 51
94.87697352
  0
ARC
  8
LAYER_1
 10
391.5474
 20
-28.0073
 40
6.2326
 50
76.32160786
 51
85.60637667
  0
ARC
  8
LAYER_1
 10
382.6865
 20
-65.0935
 40
44.3625
 50
73.58294073
 51
76.52865465
  0
LINE
  8
LAYER_1
 10
395.2246
 20
-22.5396
 11
395.2246
 21
-21.2884
  0
ARC
  8
LAYER_1
 10
392.0121
 20
-31.4196
 40
10.6283
 50
72.40665783
 51
77.87678181
  0
ARC
  8
LAYER_1
 10
398.8888
 20
-20.9171
 40
3.2368
 50
288.2682375
 51
307.5749128
  0
ARC
  8
LAYER_1
 10
398.4053
 20
-19.5973
 40
4.6418
 50
274.0145895
 51
288.8290898
  0
ARC
  8
LAYER_1
 10
398.4053
 20
-20.3924
 40
3.8491
 50
268.360011
 51
274.8439918
  0
LINE
  8
LAYER_1
 10
398.2951
 20
-24.2399
 11
398.2951
 21
-18.8434
  0
LINE
  8
LAYER_1
 10
398.2951
 20
-18.8434
 11
399.5838
 21
-18.8434
  0
LINE
  8
LAYER_1
 10
399.5838
 20
-18.8434
 11
399.5838
 21
-22.8383
  0
ARC
  8
LAYER_1
 10
399.4956
 20
-22.1335
 40
0.7103
 50
277.1314049
 51
295.958207
  0
ARC
  8
LAYER_1
 10
399.2786
 20
-21.686
 40
1.2076
 50
295.9193969
 51
325.4807177
  0
ARC
  8
LAYER_1
 10
398.9134
 20
-21.3577
 40
1.6958
 50
323.3344126
 51
327.8455613
  0
ARC
  8
LAYER_1
 10
399.1503
 20
-21.5329
 40
1.4022
 50
328.753104
 51
343.5635435
  0
ARC
  8
LAYER_1
 10
397.9377
 20
-21.1696
 40
2.6681
 50
343.4495362
 51
352.9514753
  0
ARC
  8
LAYER_1
 10
395.8698
 20
-20.9074
 40
4.7525
 50
352.8742823
 51
4.069265984
  0
LINE
  8
LAYER_1
 10
400.6103
 20
-20.5702
 11
401.7958
 21
-20.5702
  0
ARC
  8
LAYER_1
 10
396.0506
 20
-20.8034
 40
5.75
 50
348.7691617
 51
2.324459127
  0
ARC
  8
LAYER_1
 10
398.1468
 20
-21.2257
 40
3.6116
 50
332.2799632
 51
348.8629354
  0
ARC
  8
LAYER_1
 10
399.6246
 20
-21.96
 40
1.9623
 50
309.1184749
 51
331.1898301
  0
ENDBLK
  0
BLOCK
  8
LAYER_1
  2
AIGNBL0102000B
 70
64
 10
0
 20
0
 30
0
  3
AIGNBL0102000B
  0
INSERT
  8
LAYER_1
  2
AIGNBL0103000C
 10
0
 20
0
 30
0
  0
INSERT
  8
LAYER_1
  2
AIGNBL0103000D
 10
0
 20
0
 30
0
  0
INSERT
  8
LAYER_1
  2
AIGNBL0103000E
 10
0
 20
0
 30
0
  0
INSERT
  8
LAYER_1
  2
AIGNBL0103000F
 10
0
 20
0
 30
0
  0
INSERT
  8
LAYER_1
  2
AIGNBL01030010
 10
0
 20
0
 30
0
  0
INSERT
  8
LAYER_1
  2
AIGNBL01030011
 10
0
 20
0
 30
0
  0
INSERT
  8
LAYER_1
  2
AIGNBL01030012
 10
0
 20
0
 30
0
  0
INSERT
  8
LAYER_1
  2
AIGNBL01030013
 10
0
 20
0
 30
0
  0
INSERT
  8
LAYER_1
  2
AIGNBL01030014
 10
0
 20
0
 30
0
  0
INSERT
  8
LAYER_1
  2
AIGNBL01030015
 10
0
 20
0
 30
0
  0
INSERT
  8
LAYER_1
  2
AIGNBL01030016
 10
0
 20
0
 30
0
  0
INSERT
  8
LAYER_1
  2
AIGNBL01030017
 10
0
 20
0
 30
0
  0
INSERT
  8
LAYER_1
  2
AIGNBL01030018
 10
0
 20
0
 30
0
  0
INSERT
  8
LAYER_1
  2
AIGNBL01030019
 10
0
 20
0
 30
0
  0
INSERT
  8
LAYER_1
  2
AIGNBL0103001A
 10
0
 20
0
 30
0
  0
INSERT
  8
LAYER_1
  2
AIGNBL0103001B
 10
0
 20
0
 30
0
  0
INSERT
  8
LAYER_1
  2
AIGNBL0103001C
 10
0
 20
0
 30
0
  0
INSERT
  8
LAYER_1
  2
AIGNBL0103001D
 10
0
 20
0
 30
0
  0
INSERT
  8
LAYER_1
  2
AIGNBL0103001E
 10
0
 20
0
 30
0
  0
INSERT
  8
LAYER_1
  2
AIGNBL0103001F
 10
0
 20
0
 30
0
  0
INSERT
  8
LAYER_1
  2
AIGNBL01030020
 10
0
 20
0
 30
0
  0
INSERT
  8
LAYER_1
  2
AIGNBL01030021
 10
0
 20
0
 30
0
  0
ENDBLK
  0
BLOCK
  8
LAYER_1
  2
AIGNBL01010002
 70
64
 10
0
 20
0
 30
0
  3
AIGNBL01010002
  0
INSERT
  8
LAYER_1
  2
AIGNBL01020003
 10
0
 20
0
 30
0
  0
TEXT
  8
LAYER_1
 10
348.9088
 20
-30.5741
 11
348.9088
 21
-30.5741
 40
3.1044
 41
0.5
 72
1
  1
品名
  0
TEXT
  8
LAYER_1
 10
348.9088
 20
-35.2308
 11
348.9088
 21
-35.2308
 40
3.1044
 41
0.5
 72
1
  1
PRODUCT
  0
TEXT
  8
LAYER_1
 10
414.219
 20
-30.5741
 11
414.219
 21
-30.5741
 40
3.1044
 41
0.5
 72
1
  1
型式
  0
TEXT
  8
LAYER_1
 10
414.219
 20
-35.2308
 11
414.219
 21
-35.2308
 40
3.1044
 41
0.5
 72
1
  1
TYPE
  0
TEXT
  8
LAYER_1
 10
414.219
 20
-40.4516
 11
414.219
 21
-40.4516
 40
3.1044
 41
0.5
 72
1
  1
単位
  0
TEXT
  8
LAYER_1
 10
414.219
 20
-45.1084
 11
414.219
 21
-45.1084
 40
3.1044
 41
0.5
 72
1
  1
UNIT
  0
TEXT
  8
LAYER_1
 10
414.219
 20
-60.5799
 11
414.219
 21
-60.5799
 40
3.4815
 41
0.5
 72
1
  1
設計
  0
TEXT
  8
LAYER_1
 10
414.2191
 20
-65.802
 11
414.2191
 21
-65.802
 40
3.4815
 41
0.5
 72
1
  1
DESIGNED
  0
TEXT
  8
LAYER_1
 10
349.219
 20
-40.4517
 11
349.219
 21
-40.4517
 40
3.1044
 41
0.5
 72
1
  1
寸法
  0
TEXT
  8
LAYER_1
 10
349.219
 20
-45.1085
 11
349.219
 21
-45.1085
 40
3.1044
 41
0.5
 72
1
  1
SIZE
  0
TEXT
  8
LAYER_1
 10
349.219
 20
-60.5801
 11
349.219
 21
-60.5801
 40
3.1044
 41
0.5
 72
1
  1
材質
  0
TEXT
  8
LAYER_1
 10
349.219
 20
-65.2368
 11
349.219
 21
-65.2368
 40
3.1044
 41
0.5
 72
1
  1
MATERIAL
  0
TEXT
  8
LAYER_1
 10
349.7268
 20
-50.452
 11
349.7268
 21
-50.452
 40
3.1044
 41
0.5
 72
1
  1
ネジ
  0
TEXT
  8
LAYER_1
 10
349.219
 20
-55.1087
 11
349.219
 21
-55.1087
 40
3.1044
 41
0.5
 72
1
  1
SCREW
  0
TEXT
  8
LAYER_1
 10
413.9088
 20
-50.4519
 11
413.9088
 21
-50.4519
 40
3.1044
 41
0.5
 72
1
  1
日付
  0
TEXT
  8
LAYER_1
 10
413.9088
 20
-55.1086
 11
413.9088
 21
-55.1086
 40
3.1044
 41
0.5
 72
1
  1
DATE
  0
TEXT
  8
LAYER_1
 10
380.3578
 20
-43.2231
 11
380.3578
 21
-43.2231
 40
3.6689
 41
0.5
 72
1
  1
W50×H90×D50
  0
TEXT
  8
LAYER_1
 10
446.7193
 20
-43.2231
 11
446.7193
 21
-43.2231
 40
3.6689
 41
0.5
 72
1
  1
mm
  0
TEXT
  8
LAYER_1
 10
447.3711
 20
-32.7329
 11
447.3711
 21
-32.7329
 40
3.1044
 41
0.5
 72
1
  1
SP-122　SP-332
  0
TEXT
  8
LAYER_1
 10
446.7193
 20
-53.2231
 11
446.7193
 21
-53.2231
 40
3.6689
 41
0.5
 72
1
  1
2017.09.11
  0
TEXT
  8
LAYER_1
 10
446.719
 20
-63.2231
 11
446.719
 21
-63.2231
 40
3.6689
 41
0.5
 72
1
  1
戸森 幹二
  0
TEXT
  8
LAYER_1
 10
384.1826
 20
-63.2231
 11
384.1826
 21
-63.2231
 40
3.6689
 41
0.5
 72
1
  1
黒色プラスチック
  0
TEXT
  8
LAYER_1
 10
381.7193
 20
-30.8515
 11
381.7193
 21
-30.8515
 40
3.1044
 41
0.5
 72
1
  1
中容量2線式交流電源用
  0
TEXT
  8
LAYER_1
 10
381.7193
 20
-35.5083
 11
381.7193
 21
-35.5083
 40
3.1044
 41
0.5
 72
1
  1
避雷器
  0
TEXT
  8
LAYER_1
 10
385.1148
 20
-50.8515
 11
385.1148
 21
-50.8515
 40
3.1044
 41
0.5
 72
1
  1
鉄　クロメート
  0
TEXT
  8
LAYER_1
 10
381.7193
 20
-55.5083
 11
381.7193
 21
-55.5083
 40
3.1044
 41
0.5
 72
1
  1
M3.5
  0
INSERT
  8
LAYER_1
  2
AIGNBL01020004
 10
0
 20
0
 30
0
  0
INSERT
  8
LAYER_1
  2
AIGNBL0102000B
 10
0
 20
0
 30
0
  0
ENDBLK
  0
BLOCK
  8
LAYER_1
  2
AIGNBL01010022
 70
64
 10
0
 20
0
 30
0
  3
AIGNBL01010022
  0
ENDBLK
  0
BLOCK
  8
LAYER_1
  2
AIGNBL01010023
 70
64
 10
0
 20
0
 30
0
  3
AIGNBL01010023
  0
LINE
  8
LAYER_1
 62
3
 10
242.55
 20
39.002
 11
242.55
 21
23.2721
  0
ENDBLK
  0
BLOCK
  8
LAYER_1
  2
AIGNBL01010024
 70
64
 10
0
 20
0
 30
0
  3
AIGNBL01010024
  0
LINE
  8
LAYER_1
 62
3
 10
292.55
 20
39.002
 11
292.55
 21
23.2721
  0
ENDBLK
  0
BLOCK
  8
LAYER_1
  2
AIGNBL01010025
 70
64
 10
0
 20
0
 30
0
  3
AIGNBL01010025
  0
LINE
  8
LAYER_1
 62
3
 10
245.05
 20
24.5221
 11
290.05
 21
24.5221
  0
ENDBLK
  0
BLOCK
  8
LAYER_1
  2
AIGNBL01010026
 70
64
 10
0
 20
0
 30
0
  3
AIGNBL01010026
  0
LINE
  8
LAYER_1
 62
3
 10
245.05
 20
24.9388
 11
242.55
 21
24.5221
  0
LINE
  8
LAYER_1
 62
3
 10
242.55
 20
24.5221
 11
245.05
 21
24.1054
  0
LINE
  8
LAYER_1
 62
3
 10
245.05
 20
24.1054
 11
245.05
 21
24.9388
  0
ENDBLK
  0
BLOCK
  8
LAYER_1
  2
AIGNBL01010027
 70
64
 10
0
 20
0
 30
0
  3
AIGNBL01010027
  0
LINE
  8
LAYER_1
 62
3
 10
290.05
 20
24.9388
 11
292.55
 21
24.5221
  0
LINE
  8
LAYER_1
 62
3
 10
292.55
 20
24.5221
 11
290.05
 21
24.1054
  0
LINE
  8
LAYER_1
 62
3
 10
290.05
 20
24.1054
 11
290.05
 21
24.9388
  0
ENDBLK
  0
BLOCK
  8
LAYER_1
  2
AIGNBL01010028
 70
64
 10
0
 20
0
 30
0
  3
AIGNBL01010028
  0
TEXT
  8
LAYER_1
 10
265.6213
 20
25.1898
 11
265.6213
 21
25.1898
 40
3.7421
 41
0.5
 62
3
  1
50
  0
ENDBLK
  0
BLOCK
  8
LAYER_1
  2
AIGNBL01010029
 70
64
 10
0
 20
0
 30
0
  3
AIGNBL01010029
  0
ENDBLK
  0
BLOCK
  8
LAYER_1
  2
AIGNBL0101002A
 70
64
 10
0
 20
0
 30
0
  3
AIGNBL0101002A
  0
LINE
  8
LAYER_1
 62
3
 10
265.0907
 20
122.197
 11
220.0094
 21
122.197
  0
ENDBLK
  0
BLOCK
  8
LAYER_1
  2
AIGNBL0101002B
 70
64
 10
0
 20
0
 30
0
  3
AIGNBL0101002B
  0
LINE
  8
LAYER_1
 62
3
 10
265.0907
 20
32.197
 11
220.0094
 21
32.197
  0
ENDBLK
  0
BLOCK
  8
LAYER_1
  2
AIGNBL0101002C
 70
64
 10
0
 20
0
 30
0
  3
AIGNBL0101002C
  0
LINE
  8
LAYER_1
 62
3
 10
221.2594
 20
119.697
 11
221.2594
 21
34.697
  0
ENDBLK
  0
BLOCK
  8
LAYER_1
  2
AIGNBL0101002D
 70
64
 10
0
 20
0
 30
0
  3
AIGNBL0101002D
  0
LINE
  8
LAYER_1
 62
3
 10
220.8427
 20
119.697
 11
221.2594
 21
122.197
  0
LINE
  8
LAYER_1
 62
3
 10
221.2594
 20
122.197
 11
221.6761
 21
119.697
  0
LINE
  8
LAYER_1
 62
3
 10
221.6761
 20
119.697
 11
220.8427
 21
119.697
  0
ENDBLK
  0
BLOCK
  8
LAYER_1
  2
AIGNBL0101002E
 70
64
 10
0
 20
0
 30
0
  3
AIGNBL0101002E
  0
LINE
  8
LAYER_1
 62
3
 10
220.8427
 20
34.697
 11
221.2594
 21
32.197
  0
LINE
  8
LAYER_1
 62
3
 10
221.2594
 20
32.197
 11
221.6761
 21
34.697
  0
LINE
  8
LAYER_1
 62
3
 10
221.6761
 20
34.697
 11
220.8427
 21
34.697
  0
ENDBLK
  0
BLOCK
  8
LAYER_1
  2
AIGNBL0101002F
 70
64
 10
0
 20
0
 30
0
  3
AIGNBL0101002F
  0
TEXT
  8
LAYER_1
 10
220.5917
 20
75.2684
 11
220.5917
 21
75.2684
 40
3.7421
 41
0.5
 50
89.99999999
 62
3
  1
90
  0
ENDBLK
  0
BLOCK
  8
LAYER_1
  2
AIGNBL01010030
 70
64
 10
0
 20
0
 30
0
  3
AIGNBL01010030
  0
ENDBLK
  0
BLOCK
  8
LAYER_1
  2
AIGNBL01010031
 70
64
 10
0
 20
0
 30
0
  3
AIGNBL01010031
  0
LINE
  8
LAYER_1
 62
3
 10
242.173
 20
14.9127
 11
220.5917
 21
14.9127
  0
ENDBLK
  0
BLOCK
  8
LAYER_1
  2
AIGNBL01010032
 70
64
 10
0
 20
0
 30
0
  3
AIGNBL01010032
  0
LINE
  8
LAYER_1
 62
3
 10
242.173
 20
-35.0873
 11
220.5917
 21
-35.0873
  0
ENDBLK
  0
BLOCK
  8
LAYER_1
  2
AIGNBL01010033
 70
64
 10
0
 20
0
 30
0
  3
AIGNBL01010033
  0
LINE
  8
LAYER_1
 62
3
 10
221.8417
 20
12.4127
 11
221.8417
 21
-32.5873
  0
ENDBLK
  0
BLOCK
  8
LAYER_1
  2
AIGNBL01010034
 70
64
 10
0
 20
0
 30
0
  3
AIGNBL01010034
  0
LINE
  8
LAYER_1
 62
3
 10
221.4251
 20
12.4127
 11
221.8417
 21
14.9127
  0
LINE
  8
LAYER_1
 62
3
 10
221.8417
 20
14.9127
 11
222.2584
 21
12.4127
  0
LINE
  8
LAYER_1
 62
3
 10
222.2584
 20
12.4127
 11
221.4251
 21
12.4127
  0
ENDBLK
  0
BLOCK
  8
LAYER_1
  2
AIGNBL01010035
 70
64
 10
0
 20
0
 30
0
  3
AIGNBL01010035
  0
LINE
  8
LAYER_1
 62
3
 10
221.4251
 20
-32.5873
 11
221.8417
 21
-35.0873
  0
LINE
  8
LAYER_1
 62
3
 10
221.8417
 20
-35.0873
 11
222.2584
 21
-32.5873
  0
LINE
  8
LAYER_1
 62
3
 10
222.2584
 20
-32.5873
 11
221.4251
 21
-32.5873
  0
ENDBLK
  0
BLOCK
  8
LAYER_1
  2
AIGNBL01010036
 70
64
 10
0
 20
0
 30
0
  3
AIGNBL01010036
  0
TEXT
  8
LAYER_1
 10
221.174
 20
-12.0158
 11
221.174
 21
-12.0158
 40
3.7421
 41
0.5
 50
89.99999999
 62
3
  1
50
  0
ENDBLK
  0
ENDSEC
  0
SECTION
  2
ENTITIES
  0
INSERT
  8
LAYER_1
  2
AIGNBL01010002
 10
0
 20
0
 30
0
  0
LINE
  8
LAYER_1
 10
469.2192
 20
-66.6014
 11
124.874
 21
-66.6014
  0
LINE
  8
LAYER_1
 10
124.874
 20
-66.6014
 11
124.874
 21
169.592
  0
LINE
  8
LAYER_1
 10
124.874
 20
169.592
 11
469.2192
 21
169.592
  0
LINE
  8
LAYER_1
 10
469.2192
 20
169.592
 11
469.2192
 21
-66.6014
  0
LINE
  8
LAYER_1
 10
248.55
 20
-23.5873
 11
248.4979
 21
-23.2918
  0
LINE
  8
LAYER_1
 10
249.55
 20
-23.5873
 11
249.6021
 21
-23.2918
  0
LINE
  8
LAYER_1
 10
248.35
 20
-21.5873
 11
248.5553
 21
-22.1511
  0
LINE
  8
LAYER_1
 10
249.75
 20
-21.5873
 11
249.5448
 21
-22.1511
  0
LINE
  8
LAYER_1
 10
258.95
 20
-23.5873
 11
258.8979
 21
-23.2918
  0
LINE
  8
LAYER_1
 10
259.95
 20
-23.5873
 11
260.0021
 21
-23.2918
  0
LINE
  8
LAYER_1
 10
258.75
 20
-21.5873
 11
258.9553
 21
-22.1511
  0
LINE
  8
LAYER_1
 10
260.15
 20
-21.5873
 11
259.9448
 21
-22.1511
  0
LINE
  8
LAYER_1
 10
275.05
 20
-23.5873
 11
274.9979
 21
-23.2918
  0
LINE
  8
LAYER_1
 10
276.05
 20
-23.5873
 11
276.1021
 21
-23.2918
  0
LINE
  8
LAYER_1
 10
274.85
 20
-21.5873
 11
275.0553
 21
-22.1511
  0
LINE
  8
LAYER_1
 10
276.25
 20
-21.5873
 11
276.0448
 21
-22.1511
  0
LINE
  8
LAYER_1
 10
285.45
 20
-23.5873
 11
285.3979
 21
-23.2918
  0
LINE
  8
LAYER_1
 10
286.45
 20
-23.5873
 11
286.5021
 21
-23.2918
  0
LINE
  8
LAYER_1
 10
285.25
 20
-21.5873
 11
285.4553
 21
-22.1511
  0
LINE
  8
LAYER_1
 10
286.65
 20
-21.5873
 11
286.4448
 21
-22.1511
  0
LINE
  8
LAYER_1
 10
269.05
 20
-15.0873
 11
292.55
 21
-15.0873
  0
LINE
  8
LAYER_1
 10
292.55
 20
-15.0873
 11
292.55
 21
14.9127
  0
LINE
  8
LAYER_1
 10
292.55
 20
14.9127
 11
242.55
 21
14.9127
  0
LINE
  8
LAYER_1
 10
242.55
 20
14.9127
 11
242.55
 21
-15.0873
  0
LINE
  8
LAYER_1
 10
242.55
 20
-15.0873
 11
266.05
 21
-15.0873
  0
LINE
  8
LAYER_1
 10
242.75
 20
-15.0873
 11
242.75
 21
-16.2873
  0
LINE
  8
LAYER_1
 10
253.55
 20
-35.0873
 11
281.55
 21
-35.0873
  0
LINE
  8
LAYER_1
 10
281.55
 20
-35.0873
 11
281.55
 21
-31.5873
  0
LINE
  8
LAYER_1
 10
281.55
 20
-31.5873
 11
253.55
 21
-31.5873
  0
LINE
  8
LAYER_1
 10
253.55
 20
-31.5873
 11
253.55
 21
-35.0873
  0
LINE
  8
LAYER_1
 10
252.95
 20
-16.2873
 11
252.95
 21
-28.1873
  0
LINE
  8
LAYER_1
 10
252.95
 20
-28.1873
 11
245.25
 21
-28.1873
  0
LINE
  8
LAYER_1
 10
245.25
 20
-28.1873
 11
245.25
 21
-16.2873
  0
LINE
  8
LAYER_1
 10
242.55
 20
-17.6873
 11
245.25
 21
-17.6873
  0
LINE
  8
LAYER_1
 10
252.95
 20
-17.6873
 11
255.65
 21
-17.6873
  0
LINE
  8
LAYER_1
 10
279.45
 20
-17.6873
 11
282.15
 21
-17.6873
  0
LINE
  8
LAYER_1
 10
289.85
 20
-17.6873
 11
292.55
 21
-17.6873
  0
LINE
  8
LAYER_1
 10
255.05
 20
-35.0873
 11
255.05
 21
-31.5873
  0
LINE
  8
LAYER_1
 10
280.05
 20
-35.0873
 11
280.05
 21
-31.5873
  0
LINE
  8
LAYER_1
 10
261.75
 20
-35.0873
 11
261.75
 21
-31.5873
  0
LINE
  8
LAYER_1
 10
273.35
 20
-35.0873
 11
273.35
 21
-31.5873
  0
LINE
  8
LAYER_1
 10
270.35
 20
-35.0873
 11
270.35
 21
-31.5873
  0
LINE
  8
LAYER_1
 10
264.75
 20
-35.0873
 11
264.75
 21
-31.5873
  0
LINE
  8
LAYER_1
 10
289.85
 20
-16.2873
 11
289.85
 21
-28.1873
  0
LINE
  8
LAYER_1
 10
289.85
 20
-28.1873
 11
282.15
 21
-28.1873
  0
LINE
  8
LAYER_1
 10
282.15
 20
-28.1873
 11
282.15
 21
-16.2873
  0
LINE
  8
LAYER_1
 10
263.35
 20
-28.1873
 11
255.65
 21
-28.1873
  0
LINE
  8
LAYER_1
 10
255.65
 20
-28.1873
 11
255.65
 21
-16.2873
  0
LINE
  8
LAYER_1
 10
263.35
 20
-31.5873
 11
263.35
 21
-16.2873
  0
LINE
  8
LAYER_1
 10
271.75
 20
-16.2873
 11
271.75
 21
-31.5873
  0
LINE
  8
LAYER_1
 10
271.75
 20
-28.1873
 11
279.45
 21
-28.1873
  0
LINE
  8
LAYER_1
 10
279.45
 20
-28.1873
 11
279.45
 21
-16.2873
  0
LINE
  8
LAYER_1
 10
266.05
 20
-26.3873
 11
265.25
 21
-26.3873
  0
LINE
  8
LAYER_1
 10
265.25
 20
-26.3873
 11
265.25
 21
-29.9873
  0
LINE
  8
LAYER_1
 10
265.25
 20
-29.9873
 11
269.85
 21
-29.9873
  0
LINE
  8
LAYER_1
 10
269.85
 20
-29.9873
 11
269.85
 21
-26.3873
  0
LINE
  8
LAYER_1
 10
269.85
 20
-26.3873
 11
269.05
 21
-26.3873
  0
LINE
  8
LAYER_1
 10
265.25
 20
-31.5873
 11
265.25
 21
-23.8873
  0
LINE
  8
LAYER_1
 10
265.25
 20
-23.8873
 11
266.05
 21
-23.8873
  0
LINE
  8
LAYER_1
 10
266.05
 20
-23.8873
 11
266.05
 21
-16.2873
  0
LINE
  8
LAYER_1
 10
266.05
 20
-16.2873
 11
242.55
 21
-16.2873
  0
LINE
  8
LAYER_1
 10
242.55
 20
-16.2873
 11
242.55
 21
-35.0873
  0
LINE
  8
LAYER_1
 10
242.55
 20
-35.0873
 11
292.55
 21
-35.0873
  0
LINE
  8
LAYER_1
 10
292.55
 20
-35.0873
 11
292.55
 21
-16.2873
  0
LINE
  8
LAYER_1
 10
292.55
 20
-16.2873
 11
269.05
 21
-16.2873
  0
LINE
  8
LAYER_1
 10
269.05
 20
-16.2873
 11
269.05
 21
-23.8873
  0
LINE
  8
LAYER_1
 10
269.05
 20
-23.8873
 11
269.85
 21
-23.8873
  0
LINE
  8
LAYER_1
 10
269.85
 20
-23.8873
 11
269.85
 21
-31.5873
  0
LINE
  8
LAYER_1
 10
269.05
 20
-28.1873
 11
269.05
 21
-5.9873
  0
LINE
  8
LAYER_1
 10
269.05
 20
-5.9873
 11
266.05
 21
-5.9873
  0
LINE
  8
LAYER_1
 10
266.05
 20
-5.9873
 11
266.05
 21
-28.1873
  0
LINE
  8
LAYER_1
 10
266.35
 20
-31.5873
 11
268.75
 21
-31.5873
  0
LINE
  8
LAYER_1
 10
268.75
 20
-31.5873
 11
268.75
 21
-30.5873
  0
LINE
  8
LAYER_1
 10
268.75
 20
-30.5873
 11
266.35
 21
-30.5873
  0
LINE
  8
LAYER_1
 10
266.35
 20
-30.5873
 11
266.35
 21
-31.5873
  0
LINE
  8
LAYER_1
 10
247.35
 20
-15.0873
 11
247.35
 21
-16.2873
  0
LINE
  8
LAYER_1
 10
287.75
 20
-15.0873
 11
287.75
 21
-16.2873
  0
LINE
  8
LAYER_1
 10
292.35
 20
-15.0873
 11
292.35
 21
-16.2873
  0
LINE
  8
LAYER_1
 10
253.05
 20
-15.0873
 11
253.05
 21
-16.2873
  0
LINE
  8
LAYER_1
 10
282.05
 20
-15.0873
 11
282.05
 21
-16.2873
  0
LINE
  8
LAYER_1
 10
245.25
 20
-23.5873
 11
252.95
 21
-23.5873
  0
LINE
  8
LAYER_1
 10
255.65
 20
-23.5873
 11
263.35
 21
-23.5873
  0
LINE
  8
LAYER_1
 10
271.75
 20
-23.5873
 11
279.45
 21
-23.5873
  0
LINE
  8
LAYER_1
 10
282.15
 20
-23.5873
 11
289.85
 21
-23.5873
  0
LINE
  8
LAYER_1
 10
245.25
 20
-27.1873
 11
252.95
 21
-27.1873
  0
LINE
  8
LAYER_1
 10
255.65
 20
-27.1873
 11
263.35
 21
-27.1873
  0
LINE
  8
LAYER_1
 10
271.75
 20
-27.1873
 11
279.45
 21
-27.1873
  0
LINE
  8
LAYER_1
 10
282.15
 20
-27.1873
 11
289.85
 21
-27.1873
  0
LINE
  8
LAYER_1
 10
246.55
 20
-21.5873
 11
251.55
 21
-21.5873
  0
ARC
  8
LAYER_1
 10
251.55
 20
-21.0873
 40
0.5
 50
269.9989675
 51
0.001032501076
  0
ARC
  8
LAYER_1
 10
250.05
 20
-21.0873
 40
2
 50
359.9990938
 51
90.00090614
  0
LINE
  8
LAYER_1
 10
250.05
 20
-19.0873
 11
248.05
 21
-19.0873
  0
ARC
  8
LAYER_1
 10
248.05
 20
-21.0873
 40
2
 50
90.00025817
 51
179.9997418
  0
ARC
  8
LAYER_1
 10
246.55
 20
-21.0873
 40
0.5
 50
180.0036244
 51
269.9963756
  0
LINE
  8
LAYER_1
 10
248.5553
 20
-22.1511
 11
249.5448
 21
-22.1511
  0
LINE
  8
LAYER_1
 10
247.2979
 20
-21.5873
 11
245.85
 21
-21.8827
  0
LINE
  8
LAYER_1
 10
245.85
 20
-21.8827
 11
245.85
 21
-23.5873
  0
LINE
  8
LAYER_1
 10
245.85
 20
-23.5873
 11
247.2979
 21
-23.2918
  0
LINE
  8
LAYER_1
 10
247.2979
 20
-23.2918
 11
248.4979
 21
-23.2918
  0
LINE
  8
LAYER_1
 10
250.8021
 20
-21.5873
 11
252.35
 21
-21.8827
  0
LINE
  8
LAYER_1
 10
252.35
 20
-21.8827
 11
252.35
 21
-23.5873
  0
LINE
  8
LAYER_1
 10
252.35
 20
-23.5873
 11
250.8021
 21
-23.2918
  0
LINE
  8
LAYER_1
 10
250.8021
 20
-23.2918
 11
249.6021
 21
-23.2918
  0
LINE
  8
LAYER_1
 10
256.95
 20
-21.5873
 11
261.95
 21
-21.5873
  0
ARC
  8
LAYER_1
 10
261.95
 20
-21.0873
 40
0.5
 50
269.9989675
 51
0.001032501089
  0
ARC
  8
LAYER_1
 10
260.45
 20
-21.0873
 40
2
 50
359.9990938
 51
90.00090615
  0
LINE
  8
LAYER_1
 10
260.45
 20
-19.0873
 11
258.45
 21
-19.0873
  0
ARC
  8
LAYER_1
 10
258.45
 20
-21.0873
 40
2
 50
90.00025817
 51
179.9997418
  0
ARC
  8
LAYER_1
 10
256.95
 20
-21.0873
 40
0.5
 50
180.0036244
 51
269.9963756
  0
LINE
  8
LAYER_1
 10
258.9553
 20
-22.1511
 11
259.9448
 21
-22.1511
  0
LINE
  8
LAYER_1
 10
257.6979
 20
-21.5873
 11
256.25
 21
-21.8827
  0
LINE
  8
LAYER_1
 10
256.25
 20
-21.8827
 11
256.25
 21
-23.5873
  0
LINE
  8
LAYER_1
 10
256.25
 20
-23.5873
 11
257.6979
 21
-23.2918
  0
LINE
  8
LAYER_1
 10
257.6979
 20
-23.2918
 11
258.8979
 21
-23.2918
  0
LINE
  8
LAYER_1
 10
261.2021
 20
-21.5873
 11
262.75
 21
-21.8827
  0
LINE
  8
LAYER_1
 10
262.75
 20
-21.8827
 11
262.75
 21
-23.5873
  0
LINE
  8
LAYER_1
 10
262.75
 20
-23.5873
 11
261.2021
 21
-23.2918
  0
LINE
  8
LAYER_1
 10
261.2021
 20
-23.2918
 11
260.0021
 21
-23.2918
  0
LINE
  8
LAYER_1
 10
273.05
 20
-21.5873
 11
278.05
 21
-21.5873
  0
ARC
  8
LAYER_1
 10
278.05
 20
-21.0873
 40
0.5
 50
269.9989675
 51
0.001032501007
  0
ARC
  8
LAYER_1
 10
276.55
 20
-21.0873
 40
2
 50
359.9990938
 51
90.00090614
  0
LINE
  8
LAYER_1
 10
276.55
 20
-19.0873
 11
274.55
 21
-19.0873
  0
ARC
  8
LAYER_1
 10
274.55
 20
-21.0873
 40
2
 50
90.00025817
 51
179.9997418
  0
ARC
  8
LAYER_1
 10
273.05
 20
-21.0873
 40
0.5
 50
180.0036244
 51
269.9963756
  0
LINE
  8
LAYER_1
 10
275.0553
 20
-22.1511
 11
276.0448
 21
-22.1511
  0
LINE
  8
LAYER_1
 10
273.7979
 20
-21.5873
 11
272.35
 21
-21.8827
  0
LINE
  8
LAYER_1
 10
272.35
 20
-21.8827
 11
272.35
 21
-23.5873
  0
LINE
  8
LAYER_1
 10
272.35
 20
-23.5873
 11
273.7979
 21
-23.2918
  0
LINE
  8
LAYER_1
 10
273.7979
 20
-23.2918
 11
274.9979
 21
-23.2918
  0
LINE
  8
LAYER_1
 10
277.3021
 20
-21.5873
 11
278.85
 21
-21.8827
  0
LINE
  8
LAYER_1
 10
278.85
 20
-21.8827
 11
278.85
 21
-23.5873
  0
LINE
  8
LAYER_1
 10
278.85
 20
-23.5873
 11
277.3021
 21
-23.2918
  0
LINE
  8
LAYER_1
 10
277.3021
 20
-23.2918
 11
276.1021
 21
-23.2918
  0
LINE
  8
LAYER_1
 10
283.45
 20
-21.5873
 11
288.45
 21
-21.5873
  0
ARC
  8
LAYER_1
 10
288.45
 20
-21.0873
 40
0.5
 50
269.9989675
 51
0.001032501018
  0
ARC
  8
LAYER_1
 10
286.95
 20
-21.0873
 40
2
 50
359.9990938
 51
90.00090614
  0
LINE
  8
LAYER_1
 10
286.95
 20
-19.0873
 11
284.95
 21
-19.0873
  0
ARC
  8
LAYER_1
 10
284.95
 20
-21.0873
 40
2
 50
90.00025817
 51
179.9997418
  0
ARC
  8
LAYER_1
 10
283.45
 20
-21.0873
 40
0.5
 50
180.0036244
 51
269.9963756
  0
LINE
  8
LAYER_1
 10
285.4553
 20
-22.1511
 11
286.4448
 21
-22.1511
  0
LINE
  8
LAYER_1
 10
284.1979
 20
-21.5873
 11
282.75
 21
-21.8827
  0
LINE
  8
LAYER_1
 10
282.75
 20
-21.8827
 11
282.75
 21
-23.5873
  0
LINE
  8
LAYER_1
 10
282.75
 20
-23.5873
 11
284.1979
 21
-23.2918
  0
LINE
  8
LAYER_1
 10
284.1979
 20
-23.2918
 11
285.3979
 21
-23.2918
  0
LINE
  8
LAYER_1
 10
287.7021
 20
-21.5873
 11
289.25
 21
-21.8827
  0
LINE
  8
LAYER_1
 10
289.25
 20
-21.8827
 11
289.25
 21
-23.5873
  0
LINE
  8
LAYER_1
 10
289.25
 20
-23.5873
 11
287.7021
 21
-23.2918
  0
LINE
  8
LAYER_1
 10
287.7021
 20
-23.2918
 11
286.5021
 21
-23.2918
  0
LINE
  8
LAYER_1
 10
263.35
 20
115.197
 11
242.55
 21
115.197
  0
LINE
  8
LAYER_1
 10
242.55
 20
115.197
 11
242.55
 21
39.197
  0
LINE
  8
LAYER_1
 10
242.55
 20
39.197
 11
263.35
 21
39.197
  0
LINE
  8
LAYER_1
 10
243.55
 20
39.697
 11
291.55
 21
39.697
  0
ARC
  8
LAYER_1
 10
291.55
 20
40.697
 40
1
 50
269.9991045
 51
0.0008955291391
  0
LINE
  8
LAYER_1
 10
292.55
 20
40.697
 11
292.55
 21
113.697
  0
ARC
  8
LAYER_1
 10
291.55
 20
113.697
 40
1
 50
359.9985578
 51
90.00144223
  0
LINE
  8
LAYER_1
 10
291.55
 20
114.697
 11
243.55
 21
114.697
  0
ARC
  8
LAYER_1
 10
243.55
 20
113.697
 40
1
 50
90.00089554
 51
179.9991044
  0
LINE
  8
LAYER_1
 10
242.55
 20
113.697
 11
242.55
 21
40.697
  0
ARC
  8
LAYER_1
 10
243.55
 20
40.697
 40
1
 50
180.0014422
 51
269.9985578
  0
ARC
  8
LAYER_1
 10
242.8501
 20
112.997
 40
2.2
 50
50.5994565
 51
90.00195383
  0
LINE
  8
LAYER_1
 10
242.85
 20
115.197
 11
242.55
 21
115.197
  0
LINE
  8
LAYER_1
 10
242.55
 20
115.197
 11
242.55
 21
112.997
  0
LINE
  8
LAYER_1
 10
292.55
 20
112.997
 11
292.55
 21
115.197
  0
LINE
  8
LAYER_1
 10
292.55
 20
115.197
 11
292.25
 21
115.197
  0
ARC
  8
LAYER_1
 10
292.25
 20
112.997
 40
2.2
 50
90.00059602
 51
129.4005979
  0
LINE
  8
LAYER_1
 10
242.55
 20
41.397
 11
242.55
 21
39.197
  0
LINE
  8
LAYER_1
 10
242.55
 20
39.197
 11
242.85
 21
39.197
  0
ARC
  8
LAYER_1
 10
242.8501
 20
41.397
 40
2.2
 50
269.9982039
 51
309.4003858
  0
ARC
  8
LAYER_1
 10
292.25
 20
41.397
 40
2.2
 50
230.5995599
 51
269.9992463
  0
LINE
  8
LAYER_1
 10
292.25
 20
39.197
 11
292.55
 21
39.197
  0
LINE
  8
LAYER_1
 10
292.55
 20
39.197
 11
292.55
 21
41.397
  0
LINE
  8
LAYER_1
 10
245.25
 20
39.197
 11
245.25
 21
39.697
  0
LINE
  8
LAYER_1
 10
252.95
 20
39.197
 11
252.95
 21
39.697
  0
LINE
  8
LAYER_1
 10
255.65
 20
39.197
 11
255.65
 21
39.697
  0
LINE
  8
LAYER_1
 10
279.45
 20
39.197
 11
279.45
 21
39.697
  0
LINE
  8
LAYER_1
 10
282.15
 20
39.197
 11
282.15
 21
39.697
  0
LINE
  8
LAYER_1
 10
289.85
 20
39.197
 11
289.85
 21
39.697
  0
LINE
  8
LAYER_1
 10
245.25
 20
114.697
 11
245.25
 21
115.197
  0
LINE
  8
LAYER_1
 10
252.95
 20
114.697
 11
252.95
 21
115.197
  0
LINE
  8
LAYER_1
 10
255.65
 20
114.697
 11
255.65
 21
115.197
  0
LINE
  8
LAYER_1
 10
279.45
 20
114.697
 11
279.45
 21
115.197
  0
LINE
  8
LAYER_1
 10
282.15
 20
114.697
 11
282.15
 21
115.197
  0
LINE
  8
LAYER_1
 10
289.85
 20
114.697
 11
289.85
 21
115.197
  0
LINE
  8
LAYER_1
 10
271.75
 20
114.697
 11
271.75
 21
117.197
  0
LINE
  8
LAYER_1
 10
271.75
 20
117.197
 11
269.05
 21
117.197
  0
LINE
  8
LAYER_1
 10
263.35
 20
115.597
 11
266.05
 21
115.597
  0
LINE
  8
LAYER_1
 10
266.05
 20
120.297
 11
269.05
 21
120.297
  0
LINE
  8
LAYER_1
 10
269.05
 20
115.597
 11
271.75
 21
115.597
  0
LINE
  8
LAYER_1
 10
266.05
 20
117.197
 11
263.35
 21
117.197
  0
LINE
  8
LAYER_1
 10
263.35
 20
117.197
 11
263.35
 21
114.697
  0
LINE
  8
LAYER_1
 10
263.35
 20
38.797
 11
266.05
 21
38.797
  0
LINE
  8
LAYER_1
 10
269.05
 20
38.797
 11
271.75
 21
38.797
  0
LINE
  8
LAYER_1
 10
266.05
 20
34.097
 11
269.05
 21
34.097
  0
LINE
  8
LAYER_1
 10
271.75
 20
39.197
 11
292.55
 21
39.197
  0
LINE
  8
LAYER_1
 10
292.55
 20
39.197
 11
292.55
 21
115.197
  0
LINE
  8
LAYER_1
 10
292.55
 20
115.197
 11
271.75
 21
115.197
  0
CIRCLE
  8
LAYER_1
 10
251.55
 20
51.697
 40
1.5
  0
LINE
  8
LAYER_1
 10
266.05
 20
33.197
 11
264.75
 21
33.197
  0
LINE
  8
LAYER_1
 10
264.75
 20
33.197
 11
261.75
 21
35.197
  0
LINE
  8
LAYER_1
 10
261.75
 20
35.197
 11
261.75
 21
37.197
  0
LINE
  8
LAYER_1
 10
261.75
 20
37.197
 11
255.05
 21
37.197
  0
LINE
  8
LAYER_1
 10
255.05
 20
37.197
 11
253.55
 21
38.697
  0
LINE
  8
LAYER_1
 10
253.55
 20
38.697
 11
253.55
 21
39.197
  0
LINE
  8
LAYER_1
 10
269.05
 20
33.197
 11
270.35
 21
33.197
  0
LINE
  8
LAYER_1
 10
270.35
 20
33.197
 11
273.35
 21
35.197
  0
LINE
  8
LAYER_1
 10
273.35
 20
35.197
 11
273.35
 21
37.197
  0
LINE
  8
LAYER_1
 10
273.35
 20
37.197
 11
280.05
 21
37.197
  0
LINE
  8
LAYER_1
 10
280.05
 20
37.197
 11
281.55
 21
38.697
  0
LINE
  8
LAYER_1
 10
281.55
 20
38.697
 11
281.55
 21
39.197
  0
LINE
  8
LAYER_1
 10
281.55
 20
39.197
 11
292.55
 21
39.197
  0
ARC
  8
LAYER_1
 10
267.55
 20
36.197
 40
1.8
 50
180.0000177
 51
213.5568922
  0
LINE
  8
LAYER_1
 10
265.75
 20
36.197
 11
264.15
 21
36.197
  0
LINE
  8
LAYER_1
 10
264.15
 20
36.197
 11
264.15
 21
37.197
  0
LINE
  8
LAYER_1
 10
264.15
 20
37.197
 11
266.0534
 21
37.197
  0
LINE
  8
LAYER_1
 10
266.0534
 20
37.197
 11
266.05
 21
37.192
  0
LINE
  8
LAYER_1
 10
266.05
 20
37.192
 11
263.35
 21
37.197
  0
LINE
  8
LAYER_1
 10
263.35
 20
37.197
 11
263.35
 21
39.697
  0
ARC
  8
LAYER_1
 10
267.55
 20
36.197
 40
1.8
 50
326.4423899
 51
0.0007002043505
  0
LINE
  8
LAYER_1
 10
269.35
 20
36.197
 11
270.95
 21
36.197
  0
LINE
  8
LAYER_1
 10
270.95
 20
36.197
 11
270.95
 21
37.197
  0
LINE
  8
LAYER_1
 10
270.95
 20
37.197
 11
269.0467
 21
37.197
  0
LINE
  8
LAYER_1
 10
269.0467
 20
37.197
 11
269.05
 21
37.192
  0
LINE
  8
LAYER_1
 10
269.05
 20
37.192
 11
271.75
 21
37.197
  0
LINE
  8
LAYER_1
 10
271.75
 20
37.197
 11
271.75
 21
39.697
  0
LINE
  8
LAYER_1
 10
266.05
 20
114.697
 11
269.05
 21
114.697
  0
LINE
  8
LAYER_1
 10
269.05
 20
114.697
 11
269.05
 21
122.197
  0
LINE
  8
LAYER_1
 10
269.05
 20
122.197
 11
266.05
 21
122.197
  0
LINE
  8
LAYER_1
 10
266.05
 20
122.197
 11
266.05
 21
114.697
  0
LINE
  8
LAYER_1
 10
266.05
 20
39.697
 11
269.05
 21
39.697
  0
LINE
  8
LAYER_1
 10
269.05
 20
39.697
 11
269.05
 21
32.197
  0
LINE
  8
LAYER_1
 10
269.05
 20
32.197
 11
266.05
 21
32.197
  0
LINE
  8
LAYER_1
 10
266.05
 20
32.197
 11
266.05
 21
39.697
  0
LINE
  8
LAYER_1
 10
312.2862
 20
114.697
 11
342.2862
 21
114.697
  0
LINE
  8
LAYER_1
 10
342.2862
 20
114.697
 11
342.2862
 21
39.697
  0
LINE
  8
LAYER_1
 10
342.2862
 20
39.697
 11
312.2862
 21
39.697
  0
LINE
  8
LAYER_1
 10
312.2862
 20
39.697
 11
312.2862
 21
114.697
  0
LINE
  8
LAYER_1
 10
343.4862
 20
99.197
 11
342.2862
 21
99.197
  0
LINE
  8
LAYER_1
 10
343.4862
 20
94.597
 11
342.2862
 21
94.597
  0
LINE
  8
LAYER_1
 10
343.4862
 20
55.197
 11
342.2862
 21
55.197
  0
LINE
  8
LAYER_1
 10
343.4862
 20
59.797
 11
342.2862
 21
59.797
  0
LINE
  8
LAYER_1
 10
343.4862
 20
91.697
 11
342.2862
 21
91.697
  0
LINE
  8
LAYER_1
 10
343.4862
 20
62.697
 11
342.2862
 21
62.697
  0
LINE
  8
LAYER_1
 10
343.4862
 20
72.997
 11
347.4862
 21
72.997
  0
LINE
  8
LAYER_1
 10
347.4862
 20
72.997
 11
347.4862
 21
81.397
  0
LINE
  8
LAYER_1
 10
347.4862
 20
81.397
 11
343.4862
 21
81.397
  0
LINE
  8
LAYER_1
 10
343.4862
 20
81.397
 11
343.4862
 21
72.997
  0
LINE
  8
LAYER_1
 10
362.2862
 20
115.197
 11
362.2862
 21
117.297
  0
LINE
  8
LAYER_1
 10
358.7862
 20
35.197
 11
362.2862
 21
35.197
  0
LINE
  8
LAYER_1
 10
358.7862
 20
37.197
 11
362.2862
 21
37.197
  0
LINE
  8
LAYER_1
 10
358.7862
 20
38.697
 11
362.2862
 21
38.697
  0
LINE
  8
LAYER_1
 10
343.4862
 20
113.797
 11
344.8862
 21
115.197
  0
LINE
  8
LAYER_1
 10
344.8862
 20
115.197
 11
362.2862
 21
115.197
  0
LINE
  8
LAYER_1
 10
362.2862
 20
115.197
 11
362.2862
 21
94.797
  0
LINE
  8
LAYER_1
 10
357.9862
 20
85.997
 11
357.9862
 21
81.997
  0
LINE
  8
LAYER_1
 10
357.9862
 20
81.997
 11
362.2862
 21
81.997
  0
LINE
  8
LAYER_1
 10
362.2862
 20
81.997
 11
362.2862
 21
85.997
  0
LINE
  8
LAYER_1
 10
362.2862
 20
85.997
 11
357.9862
 21
85.997
  0
LINE
  8
LAYER_1
 10
357.9862
 20
85.997
 11
357.9862
 21
81.997
  0
LINE
  8
LAYER_1
 10
357.9862
 20
68.397
 11
362.2862
 21
68.397
  0
LINE
  8
LAYER_1
 10
362.2862
 20
68.397
 11
362.2862
 21
72.397
  0
LINE
  8
LAYER_1
 10
362.2862
 20
72.397
 11
357.9862
 21
72.397
  0
LINE
  8
LAYER_1
 10
357.9862
 20
72.397
 11
357.9862
 21
68.397
  0
ARC
  8
LAYER_1
 10
355.7362
 20
91.797
 40
2.55
 50
331.9273156
 51
0.000197434158
  0
ARC
  8
LAYER_1
 10
355.7362
 20
91.797
 40
2.55
 50
359.9997773
 51
28.07270959
  0
LINE
  8
LAYER_1
 10
362.2862
 20
72.397
 11
362.2862
 21
68.397
  0
LINE
  8
LAYER_1
 10
362.2862
 20
85.997
 11
362.2862
 21
81.997
  0
LINE
  8
LAYER_1
 10
359.4862
 20
94.797
 11
359.4862
 21
92.997
  0
LINE
  8
LAYER_1
 10
359.4862
 20
92.997
 11
360.4862
 21
92.997
  0
LINE
  8
LAYER_1
 10
360.4862
 20
92.997
 11
362.2862
 21
94.797
  0
LINE
  8
LAYER_1
 10
362.2862
 20
94.797
 11
357.9862
 21
94.797
  0
LINE
  8
LAYER_1
 10
357.9862
 20
94.797
 11
357.9862
 21
59.597
  0
LINE
  8
LAYER_1
 10
357.9862
 20
59.597
 11
362.2862
 21
59.597
  0
LINE
  8
LAYER_1
 10
359.7862
 20
59.597
 11
359.7862
 21
61.597
  0
LINE
  8
LAYER_1
 10
359.7862
 20
61.597
 11
360.7862
 21
61.597
  0
LINE
  8
LAYER_1
 10
360.7862
 20
61.597
 11
362.2862
 21
59.597
  0
LINE
  8
LAYER_1
 10
362.2862
 20
59.597
 11
362.2862
 21
39.197
  0
LINE
  8
LAYER_1
 10
362.2862
 20
39.197
 11
344.8862
 21
39.197
  0
LINE
  8
LAYER_1
 10
344.8862
 20
39.197
 11
343.4862
 21
40.597
  0
LINE
  8
LAYER_1
 10
263.35
 20
-17.6873
 11
266.05
 21
-17.6873
  0
LINE
  8
LAYER_1
 10
269.05
 20
-17.6873
 11
271.75
 21
-17.6873
  0
LINE
  8
LAYER_1
 10
347.9862
 20
117.297
 11
362.2862
 21
117.297
  0
LINE
  8
LAYER_1
 10
362.2862
 20
117.297
 11
344.8862
 21
117.297
  0
LINE
  8
LAYER_1
 10
344.8862
 20
117.297
 11
343.4862
 21
115.897
  0
LINE
  8
LAYER_1
 10
343.4862
 20
115.897
 11
343.4862
 21
115.197
  0
LINE
  8
LAYER_1
 10
343.4862
 20
115.197
 11
343.4862
 21
39.197
  0
LINE
  8
LAYER_1
 10
343.4862
 20
39.197
 11
343.4862
 21
38.497
  0
LINE
  8
LAYER_1
 10
343.4862
 20
38.497
 11
344.8862
 21
37.097
  0
LINE
  8
LAYER_1
 10
344.8862
 20
37.097
 11
358.7862
 21
37.097
  0
LINE
  8
LAYER_1
 10
339.1766
 20
114.697
 11
339.3873
 21
115.7443
  0
ARC
  8
LAYER_1
 10
340.2696
 20
115.5669
 40
0.9
 50
90.00198913
 51
168.6326756
  0
LINE
  8
LAYER_1
 10
340.2696
 20
116.4669
 11
340.447
 21
116.4492
  0
ARC
  8
LAYER_1
 10
340.2696
 20
115.5669
 40
0.9
 50
0.002112946813
 51
78.63255184
  0
LINE
  8
LAYER_1
 10
341.1696
 20
115.5669
 11
341.1519
 21
115.3894
  0
LINE
  8
LAYER_1
 10
341.1519
 20
115.3894
 11
341.0928
 21
115.0953
  0
LINE
  8
LAYER_1
 10
341.0928
 20
115.0953
 11
343.4862
 21
114.614
  0
LINE
  8
LAYER_1
 10
335.4026
 20
114.697
 11
336.4302
 21
119.8071
  0
LINE
  8
LAYER_1
 10
336.4302
 20
119.8071
 11
333.9303
 21
120.3098
  0
ARC
  8
LAYER_1
 10
334.1176
 20
121.2412
 40
0.95
 50
179.998093
 51
258.6282727
  0
LINE
  8
LAYER_1
 10
333.1676
 20
121.2412
 11
333.1862
 21
121.4285
  0
ARC
  8
LAYER_1
 10
334.1176
 20
121.2412
 40
0.95
 50
89.99811036
 51
168.6282553
  0
LINE
  8
LAYER_1
 10
334.1176
 20
122.1912
 11
334.3049
 21
122.1726
  0
LINE
  8
LAYER_1
 10
334.3049
 20
122.1726
 11
346.1184
 21
119.7968
  0
LINE
  8
LAYER_1
 10
346.1184
 20
119.7968
 11
347.781
 21
117.297
  0
LINE
  8
LAYER_1
 10
312.2862
 20
114.697
 11
334.9862
 21
114.697
  0
LINE
  8
LAYER_1
 10
343.4862
 20
39.78
 11
341.0928
 21
39.2987
  0
LINE
  8
LAYER_1
 10
341.0928
 20
39.2987
 11
341.1519
 21
39.0046
  0
LINE
  8
LAYER_1
 10
341.1519
 20
39.0046
 11
341.1696
 21
38.8271
  0
ARC
  8
LAYER_1
 10
340.2696
 20
38.8271
 40
0.9
 50
281.3679359
 51
359.9973994
  0
LINE
  8
LAYER_1
 10
340.447
 20
37.9448
 11
340.2696
 21
37.9271
  0
ARC
  8
LAYER_1
 10
340.2696
 20
38.8271
 40
0.9
 50
191.3679199
 51
269.9974153
  0
LINE
  8
LAYER_1
 10
339.3873
 20
38.6497
 11
339.1766
 21
39.697
  0
LINE
  8
LAYER_1
 10
335.4026
 20
39.697
 11
336.4302
 21
34.5869
  0
LINE
  8
LAYER_1
 10
336.4302
 20
34.5869
 11
333.9303
 21
34.0842
  0
ARC
  8
LAYER_1
 10
334.1176
 20
33.1528
 40
0.95
 50
101.3712653
 51
180.002369
  0
LINE
  8
LAYER_1
 10
333.1676
 20
33.1528
 11
333.1862
 21
32.9655
  0
ARC
  8
LAYER_1
 10
334.1176
 20
33.1528
 40
0.95
 50
191.3723089
 51
270.0013255
  0
LINE
  8
LAYER_1
 10
334.1176
 20
32.2028
 11
334.3049
 21
32.2215
  0
LINE
  8
LAYER_1
 10
334.3049
 20
32.2215
 11
346.1184
 21
34.5973
  0
LINE
  8
LAYER_1
 10
346.1184
 20
34.5973
 11
347.781
 21
37.097
  0
LINE
  8
LAYER_1
 10
362.2862
 20
39.197
 11
362.2862
 21
33.197
  0
LINE
  8
LAYER_1
 10
362.2862
 20
33.197
 11
358.7862
 21
33.197
  0
LINE
  8
LAYER_1
 10
358.7862
 20
33.197
 11
358.7862
 21
39.197
  0
ARC
  8
LAYER_1
 10
251.55
 20
14.2877
 40
1.625
 50
22.61906067
 51
90.00080427
  0
ARC
  8
LAYER_1
 10
251.55
 20
14.2877
 40
1.625
 50
90.00008104
 51
157.380054
  0
INSERT
  8
LAYER_1
  2
AIGNBL01010022
 10
0
 20
0
 30
0
  0
INSERT
  8
LAYER_1
  2
AIGNBL01010023
 10
0
 20
0
 30
0
  0
INSERT
  8
LAYER_1
  2
AIGNBL01010024
 10
0
 20
0
 30
0
  0
INSERT
  8
LAYER_1
  2
AIGNBL01010025
 10
0
 20
0
 30
0
  0
INSERT
  8
LAYER_1
  2
AIGNBL01010026
 10
0
 20
0
 30
0
  0
INSERT
  8
LAYER_1
  2
AIGNBL01010027
 10
0
 20
0
 30
0
  0
INSERT
  8
LAYER_1
  2
AIGNBL01010028
 10
0
 20
0
 30
0
  0
INSERT
  8
LAYER_1
  2
AIGNBL01010029
 10
0
 20
0
 30
0
  0
INSERT
  8
LAYER_1
  2
AIGNBL0101002A
 10
0
 20
0
 30
0
  0
INSERT
  8
LAYER_1
  2
AIGNBL0101002B
 10
0
 20
0
 30
0
  0
INSERT
  8
LAYER_1
  2
AIGNBL0101002C
 10
0
 20
0
 30
0
  0
INSERT
  8
LAYER_1
  2
AIGNBL0101002D
 10
0
 20
0
 30
0
  0
INSERT
  8
LAYER_1
  2
AIGNBL0101002E
 10
0
 20
0
 30
0
  0
INSERT
  8
LAYER_1
  2
AIGNBL0101002F
 10
0
 20
0
 30
0
  0
INSERT
  8
LAYER_1
  2
AIGNBL01010030
 10
0
 20
0
 30
0
  0
INSERT
  8
LAYER_1
  2
AIGNBL01010031
 10
0
 20
0
 30
0
  0
INSERT
  8
LAYER_1
  2
AIGNBL01010032
 10
0
 20
0
 30
0
  0
INSERT
  8
LAYER_1
  2
AIGNBL01010033
 10
0
 20
0
 30
0
  0
INSERT
  8
LAYER_1
  2
AIGNBL01010034
 10
0
 20
0
 30
0
  0
INSERT
  8
LAYER_1
  2
AIGNBL01010035
 10
0
 20
0
 30
0
  0
INSERT
  8
LAYER_1
  2
AIGNBL01010036
 10
0
 20
0
 30
0
  0
ENDSEC
  0
EOF
