  0
SECTION
  2
HEADER
  9
$ACADVER
  1
AC1009
  9
$LUNITS
 70
2
  9
$LUPREC
 70
4
  9
$LTSCALE
 40
1.0
  9
$EXTMIN
 10
124.874
 20
-66.6014
 30
0
  9
$EXTMAX
 10
469.2192
 20
169.592
 30
0
  0
ENDSEC
  0
SECTION
  2
TABLES
  0
TABLE
  2
LTYPE
 70
256
  0
ENDTAB
  0
TABLE
  2
LAYER
 70
4
  0
LAYER
  2
LAYER_1
 70
64
 62
7
  6
CONTINUOUS
  0
LAYER
  2
LAYER_2
 70
64
 62
7
  6
CONTINUOUS
  0
LAYER
  2
LAYER_3
 70
64
 62
7
  6
CONTINUOUS
  0
LAYER
  2
LAYER_4
 70
64
 62
7
  6
CONTINUOUS
  0
ENDTAB
  0
TABLE
  2
STYLE
 70
6
  0
STYLE
  2
STANDARD
 70
0
 40
0
 50
0
 71
0
 41
0
 42
0
  3
TXT
  4
BIGFONT
  0
ENDTAB
  0
ENDSEC
  0
SECTION
  2
BLOCKS
  0
BLOCK
  8
LAYER_1
  2
AIGNBL01020004
 70
64
 10
0
 20
0
 30
0
  3
AIGNBL01020004
  0
LINE
  8
LAYER_1
 10
351.6169
 20
-18.6827
 11
351.6169
 21
-24.6402
  0
LINE
  8
LAYER_1
 10
351.6169
 20
-24.6402
 11
352.6415
 21
-24.6402
  0
LINE
  8
LAYER_1
 10
352.6415
 20
-24.6402
 11
352.6415
 21
-24.1943
  0
LINE
  8
LAYER_1
 10
352.6415
 20
-24.1943
 11
355.3191
 21
-24.1943
  0
LINE
  8
LAYER_1
 10
355.3191
 20
-24.1943
 11
355.3191
 21
-24.6402
  0
LINE
  8
LAYER_1
 10
355.3191
 20
-24.6402
 11
356.3916
 21
-24.6402
  0
LINE
  8
LAYER_1
 10
356.3916
 20
-24.6402
 11
356.3916
 21
-18.6827
  0
LINE
  8
LAYER_1
 10
356.3916
 20
-18.6827
 11
351.6169
 21
-18.6827
  0
LINE
  8
LAYER_1
 10
355.3191
 20
-23.2015
 11
352.6414
 21
-23.2015
  0
LINE
  8
LAYER_1
 10
352.6414
 20
-23.2015
 11
352.6414
 21
-21.9114
  0
LINE
  8
LAYER_1
 10
352.6414
 20
-21.9114
 11
355.3191
 21
-21.9114
  0
LINE
  8
LAYER_1
 10
355.3191
 20
-21.9114
 11
355.3191
 21
-23.2015
  0
LINE
  8
LAYER_1
 10
355.3191
 20
-20.9388
 11
352.6414
 21
-20.9388
  0
LINE
  8
LAYER_1
 10
352.6414
 20
-20.9388
 11
352.6414
 21
-19.6756
  0
LINE
  8
LAYER_1
 10
352.6414
 20
-19.6756
 11
355.3191
 21
-19.6756
  0
LINE
  8
LAYER_1
 10
355.3191
 20
-19.6756
 11
355.3191
 21
-20.9388
  0
ENDBLK
  0
BLOCK
  8
LAYER_1
  2
AIGNBL01020005
 70
64
 10
0
 20
0
 30
0
  3
AIGNBL01020005
  0
LINE
  8
LAYER_1
 10
361.151
 20
-20.6576
 11
362.9908
 21
-20.6576
  0
LINE
  8
LAYER_1
 10
362.9908
 20
-20.6576
 11
362.9908
 21
-19.7345
  0
LINE
  8
LAYER_1
 10
362.9908
 20
-19.7345
 11
360.6104
 21
-19.7345
  0
LINE
  8
LAYER_1
 10
360.6104
 20
-19.7345
 11
360.6104
 21
-18.5234
  0
LINE
  8
LAYER_1
 10
360.6104
 20
-18.5234
 11
359.664
 21
-18.5234
  0
LINE
  8
LAYER_1
 10
359.664
 20
-18.5234
 11
359.664
 21
-19.7345
  0
LINE
  8
LAYER_1
 10
359.664
 20
-19.7345
 11
357.2985
 21
-19.7345
  0
LINE
  8
LAYER_1
 10
357.2985
 20
-19.7345
 11
357.2985
 21
-20.6576
  0
LINE
  8
LAYER_1
 10
357.2985
 20
-20.6576
 11
359.1384
 21
-20.6576
  0
ARC
  8
LAYER_1
 10
352.8106
 20
-17.3096
 40
7.1589
 50
320.090402
 51
332.1165604
  0
ARC
  8
LAYER_1
 10
354.1771
 20
-18.4889
 40
5.3542
 50
306.7900371
 51
320.388939
  0
ARC
  8
LAYER_1
 10
355.319
 20
-19.9296
 40
3.517
 50
299.7830125
 51
305.949067
  0
ARC
  8
LAYER_1
 10
357.3195
 20
-22.9417
 40
0.2568
 50
189.0334679
 51
222.7018683
  0
ARC
  8
LAYER_1
 10
349.0955
 20
-31.2358
 40
11.4237
 50
41.87924042
 51
45.29994199
  0
ARC
  8
LAYER_1
 10
356.4378
 20
-24.3822
 40
1.3963
 50
27.03581007
 51
33.58660137
  0
ARC
  8
LAYER_1
 10
357.1615
 20
-22.7438
 40
1.1304
 50
297.3892127
 51
310.3878745
  0
ARC
  8
LAYER_1
 10
353.9762
 20
-18.4423
 40
6.4808
 50
307.1941606
 51
316.157217
  0
LINE
  8
LAYER_1
 10
358.6504
 20
-22.9314
 11
358.6504
 21
-23.6463
  0
LINE
  8
LAYER_1
 10
358.6504
 20
-23.6463
 11
359.664
 21
-23.6463
  0
LINE
  8
LAYER_1
 10
359.664
 20
-23.6463
 11
359.664
 21
-24.6876
  0
LINE
  8
LAYER_1
 10
359.664
 20
-24.6876
 11
360.6104
 21
-24.6876
  0
LINE
  8
LAYER_1
 10
360.6104
 20
-24.6876
 11
360.6104
 21
-23.6463
  0
LINE
  8
LAYER_1
 10
360.6104
 20
-23.6463
 11
361.5865
 21
-23.6463
  0
LINE
  8
LAYER_1
 10
361.5865
 20
-23.6463
 11
361.5865
 21
-22.8527
  0
ARC
  8
LAYER_1
 10
367.4456
 20
-17.4235
 40
7.9878
 50
222.8193225
 51
229.3988578
  0
ARC
  8
LAYER_1
 10
363.292
 20
-22.3337
 40
1.5572
 50
227.8567087
 51
243.3220042
  0
ARC
  8
LAYER_1
 10
365.2853
 20
-25.2871
 40
3.1127
 50
130.021284
 51
149.8796157
  0
ARC
  8
LAYER_1
 10
366.6645
 20
-17.3886
 40
6.4686
 50
224.4805238
 51
238.4889517
  0
ARC
  8
LAYER_1
 10
366.2036
 20
-18.0408
 40
5.6846
 50
209.4849127
 51
223.0453232
  0
ARC
  8
LAYER_1
 10
368.6448
 20
-16.4657
 40
8.5866
 50
209.221804
 51
210.6164087
  0
LINE
  8
LAYER_1
 10
359.664
 20
-22.7289
 11
358.8305
 21
-22.7289
  0
ARC
  8
LAYER_1
 10
349.8511
 20
-15.6241
 40
11.4503
 50
321.6476407
 51
327.3808252
  0
ARC
  8
LAYER_1
 10
358.6925
 20
-21.2021
 40
0.9989
 50
323.4909871
 51
346.5621015
  0
LINE
  8
LAYER_1
 10
359.664
 20
-21.4342
 11
359.664
 21
-22.7289
  0
LINE
  8
LAYER_1
 10
360.6104
 20
-22.7289
 11
360.6029
 21
-21.4287
  0
ARC
  8
LAYER_1
 10
362.6273
 20
-20.5905
 40
2.1911
 50
202.4906272
 51
213.3800963
  0
ARC
  8
LAYER_1
 10
369.8191
 20
-15.9672
 40
10.7407
 50
212.8670743
 51
219.0164701
  0
LINE
  8
LAYER_1
 10
361.474
 20
-22.7289
 11
360.6104
 21
-22.7289
  0
ENDBLK
  0
BLOCK
  8
LAYER_1
  2
AIGNBL01020006
 70
64
 10
0
 20
0
 30
0
  3
AIGNBL01020006
  0
LINE
  8
LAYER_1
 10
364.3358
 20
-22.0502
 11
364.3358
 21
-24.7051
  0
LINE
  8
LAYER_1
 10
364.3358
 20
-24.7051
 11
365.2338
 21
-24.7051
  0
LINE
  8
LAYER_1
 10
365.2338
 20
-24.7051
 11
365.2338
 21
-24.5221
  0
LINE
  8
LAYER_1
 10
365.2338
 20
-24.5221
 11
367.9602
 21
-24.5221
  0
LINE
  8
LAYER_1
 10
367.9602
 20
-24.5221
 11
367.9602
 21
-24.653
  0
LINE
  8
LAYER_1
 10
367.9602
 20
-24.653
 11
368.9036
 21
-24.653
  0
LINE
  8
LAYER_1
 10
368.9036
 20
-24.653
 11
368.9036
 21
-22.0502
  0
LINE
  8
LAYER_1
 10
368.9036
 20
-22.0502
 11
364.3358
 21
-22.0502
  0
LINE
  8
LAYER_1
 10
365.2338
 20
-22.5871
 11
366.132
 21
-22.5871
  0
LINE
  8
LAYER_1
 10
366.132
 20
-22.5871
 11
366.132
 21
-23.0127
  0
LINE
  8
LAYER_1
 10
366.132
 20
-23.0127
 11
365.2338
 21
-23.0127
  0
LINE
  8
LAYER_1
 10
365.2338
 20
-23.0127
 11
365.2338
 21
-22.5871
  0
LINE
  8
LAYER_1
 10
366.1383
 20
-23.9775
 11
365.2273
 21
-23.9775
  0
LINE
  8
LAYER_1
 10
365.2273
 20
-23.9775
 11
365.2273
 21
-23.5714
  0
LINE
  8
LAYER_1
 10
365.2273
 20
-23.5714
 11
366.1383
 21
-23.5714
  0
LINE
  8
LAYER_1
 10
366.1383
 20
-23.5714
 11
366.1383
 21
-23.9775
  0
LINE
  8
LAYER_1
 10
367.9602
 20
-23.9775
 11
367.0494
 21
-23.9775
  0
LINE
  8
LAYER_1
 10
367.0494
 20
-23.9775
 11
367.0494
 21
-23.5714
  0
LINE
  8
LAYER_1
 10
367.0494
 20
-23.5714
 11
367.9602
 21
-23.5714
  0
LINE
  8
LAYER_1
 10
367.9602
 20
-23.5714
 11
367.9602
 21
-23.9775
  0
LINE
  8
LAYER_1
 10
367.9602
 20
-22.9955
 11
367.0494
 21
-22.9955
  0
LINE
  8
LAYER_1
 10
367.0494
 20
-22.9955
 11
367.0494
 21
-22.5895
  0
LINE
  8
LAYER_1
 10
367.0494
 20
-22.5895
 11
367.9602
 21
-22.5895
  0
LINE
  8
LAYER_1
 10
367.9602
 20
-22.5895
 11
367.9602
 21
-22.9955
  0
ENDBLK
  0
BLOCK
  8
LAYER_1
  2
AIGNBL01020007
 70
64
 10
0
 20
0
 30
0
  3
AIGNBL01020007
  0
LINE
  8
LAYER_1
 10
372.7281
 20
-19.4737
 11
372.7281
 21
-18.6171
  0
LINE
  8
LAYER_1
 10
372.7281
 20
-18.6171
 11
370.079
 21
-18.6171
  0
LINE
  8
LAYER_1
 10
370.079
 20
-18.6171
 11
370.079
 21
-19.4737
  0
LINE
  8
LAYER_1
 10
370.079
 20
-19.4737
 11
370.7705
 21
-19.4737
  0
ARC
  8
LAYER_1
 10
356.4394
 20
-17.2645
 40
14.5003
 50
345.1348988
 51
351.2365365
  0
ARC
  8
LAYER_1
 10
366.7843
 20
-20.0377
 40
3.7903
 50
328.8624949
 51
345.5350072
  0
ARC
  8
LAYER_1
 10
368.3851
 20
-20.8832
 40
1.9856
 50
321.3970248
 51
325.858362
  0
ARC
  8
LAYER_1
 10
368.332
 20
-23.5053
 40
2.1187
 50
13.8393475
 51
40.75613321
  0
LINE
  8
LAYER_1
 10
370.3892
 20
-22.9985
 11
370.5443
 21
-22.7958
  0
LINE
  8
LAYER_1
 10
370.5443
 20
-22.7958
 11
370.5443
 21
-24.2866
  0
LINE
  8
LAYER_1
 10
370.5443
 20
-24.2866
 11
371.3519
 21
-24.2866
  0
LINE
  8
LAYER_1
 10
371.3519
 20
-24.2866
 11
371.3519
 21
-23.8159
  0
LINE
  8
LAYER_1
 10
371.3519
 20
-23.8159
 11
372.5861
 21
-23.8159
  0
LINE
  8
LAYER_1
 10
372.5861
 20
-23.8159
 11
372.5861
 21
-20.6966
  0
LINE
  8
LAYER_1
 10
372.5861
 20
-20.6966
 11
371.4229
 21
-20.6966
  0
ARC
  8
LAYER_1
 10
363.6549
 20
-18.5004
 40
8.0725
 50
344.2131719
 51
353.0750751
  0
LINE
  8
LAYER_1
 10
371.6685
 20
-19.4737
 11
372.7281
 21
-19.4737
  0
LINE
  8
LAYER_1
 10
371.7591
 20
-22.9919
 11
371.3519
 21
-22.9919
  0
LINE
  8
LAYER_1
 10
371.3519
 20
-22.9919
 11
371.3519
 21
-21.5204
  0
LINE
  8
LAYER_1
 10
371.3519
 20
-21.5204
 11
371.7591
 21
-21.5204
  0
LINE
  8
LAYER_1
 10
371.7591
 20
-21.5204
 11
371.7591
 21
-22.9919
  0
ENDBLK
  0
BLOCK
  8
LAYER_1
  2
AIGNBL01020008
 70
64
 10
0
 20
0
 30
0
  3
AIGNBL01020008
  0
LINE
  8
LAYER_1
 10
375.5404
 20
-21.0627
 11
375.5404
 21
-19.4932
  0
LINE
  8
LAYER_1
 10
375.5404
 20
-19.4932
 11
376.0444
 21
-19.4932
  0
LINE
  8
LAYER_1
 10
376.0444
 20
-19.4932
 11
376.0444
 21
-18.6171
  0
LINE
  8
LAYER_1
 10
376.0444
 20
-18.6171
 11
372.8461
 21
-18.6171
  0
LINE
  8
LAYER_1
 10
372.8461
 20
-18.6171
 11
372.8461
 21
-19.4932
  0
LINE
  8
LAYER_1
 10
372.8461
 20
-19.4932
 11
373.2791
 21
-19.4932
  0
LINE
  8
LAYER_1
 10
373.2791
 20
-19.4932
 11
373.2791
 21
-21.0627
  0
LINE
  8
LAYER_1
 10
373.2791
 20
-21.0627
 11
372.6846
 21
-21.0627
  0
LINE
  8
LAYER_1
 10
372.6846
 20
-21.0627
 11
372.6846
 21
-21.9587
  0
LINE
  8
LAYER_1
 10
372.6846
 20
-21.9587
 11
373.2531
 21
-21.9587
  0
ARC
  8
LAYER_1
 10
370.4737
 20
-21.9112
 40
2.7798
 50
338.6740849
 51
359.0208722
  0
ARC
  8
LAYER_1
 10
370.197
 20
-21.8534
 40
3.0589
 50
321.0689524
 51
339.549872
  0
ARC
  8
LAYER_1
 10
370.427
 20
-22.02
 40
2.7754
 50
312.3624439
 51
320.7607289
  0
ARC
  8
LAYER_1
 10
369.8629
 20
-28.2378
 40
4.8259
 50
49.02881337
 51
59.70897779
  0
ARC
  8
LAYER_1
 10
371.585
 20
-22.7924
 40
2.3077
 50
308.6769781
 51
331.7359461
  0
ARC
  8
LAYER_1
 10
370.2911
 20
-22.0399
 40
3.804
 50
330.9823082
 51
347.5186075
  0
ARC
  8
LAYER_1
 10
369.0033
 20
-21.6627
 40
5.1437
 50
346.5157532
 51
356.7008657
  0
LINE
  8
LAYER_1
 10
374.1385
 20
-21.9587
 11
374.6488
 21
-21.9587
  0
LINE
  8
LAYER_1
 10
374.6488
 20
-21.9587
 11
374.6488
 21
-24.5744
  0
LINE
  8
LAYER_1
 10
374.6488
 20
-24.5744
 11
375.5404
 21
-24.5744
  0
LINE
  8
LAYER_1
 10
375.5404
 20
-24.5744
 11
375.5404
 21
-21.9587
  0
LINE
  8
LAYER_1
 10
375.5404
 20
-21.9587
 11
376.122
 21
-21.9587
  0
LINE
  8
LAYER_1
 10
376.122
 20
-21.9587
 11
376.122
 21
-21.0627
  0
LINE
  8
LAYER_1
 10
376.122
 20
-21.0627
 11
375.5404
 21
-21.0627
  0
LINE
  8
LAYER_1
 10
374.6488
 20
-21.0627
 11
374.1578
 21
-21.0627
  0
LINE
  8
LAYER_1
 10
374.1578
 20
-21.0627
 11
374.1578
 21
-19.4932
  0
LINE
  8
LAYER_1
 10
374.1578
 20
-19.4932
 11
374.6488
 21
-19.4932
  0
LINE
  8
LAYER_1
 10
374.6488
 20
-19.4932
 11
374.6488
 21
-21.0627
  0
ENDBLK
  0
BLOCK
  8
LAYER_1
  2
AIGNBL01020009
 70
64
 10
0
 20
0
 30
0
  3
AIGNBL01020009
  0
ARC
  8
LAYER_1
 10
348.7309
 20
-19.7029
 40
1.9539
 50
288.5756585
 51
313.5596462
  0
ARC
  8
LAYER_1
 10
349.2487
 20
-20.3423
 40
1.1356
 50
316.8583927
 51
347.2206608
  0
ARC
  8
LAYER_1
 10
348.4156
 20
-20.1397
 40
1.9929
 50
346.8393421
 51
1.02155035
  0
ARC
  8
LAYER_1
 10
349.1498
 20
-20.1072
 40
1.2584
 50
0.1386853402
 51
45.46971045
  0
ARC
  8
LAYER_1
 10
348.6205
 20
-20.6065
 40
1.9857
 50
44.68315197
 51
67.7181178
  0
ARC
  8
LAYER_1
 10
348.3585
 20
-21.0893
 40
2.5325
 50
66.37472265
 51
86.05352033
  0
ARC
  8
LAYER_1
 10
348.4626
 20
-20.2979
 40
1.7365
 50
87.68409707
 51
89.78891076
  0
LINE
  8
LAYER_1
 10
348.469
 20
-18.5614
 11
345.4981
 21
-18.5614
  0
LINE
  8
LAYER_1
 10
345.4981
 20
-18.5614
 11
345.4981
 21
-21.8229
  0
LINE
  8
LAYER_1
 10
345.4981
 20
-21.8229
 11
347.2612
 21
-21.8229
  0
ARC
  8
LAYER_1
 10
347.2871
 20
-23.4608
 40
1.6381
 50
64.35413448
 51
90.90612544
  0
ARC
  8
LAYER_1
 10
347.4879
 20
-22.9613
 40
1.1015
 50
16.86046428
 51
62.52578605
  0
ARC
  8
LAYER_1
 10
347.6674
 20
-22.8924
 40
0.9099
 50
0.3654786408
 51
15.98433816
  0
LINE
  8
LAYER_1
 10
348.5772
 20
-22.8866
 11
348.5772
 21
-24.6193
  0
LINE
  8
LAYER_1
 10
348.5772
 20
-24.6193
 11
350.1217
 21
-24.6193
  0
LINE
  8
LAYER_1
 10
350.1217
 20
-24.6193
 11
350.1217
 21
-22.7905
  0
ARC
  8
LAYER_1
 10
348.0723
 20
-22.7474
 40
2.0498
 50
358.7954297
 51
12.52019839
  0
ARC
  8
LAYER_1
 10
349.1245
 20
-22.5086
 40
0.971
 50
12.22222576
 51
45.00857478
  0
ARC
  8
LAYER_1
 10
348.9465
 20
-22.7782
 40
1.2891
 50
47.88881808
 51
71.60430132
  0
LINE
  8
LAYER_1
 10
348.2788
 20
-20.7712
 11
347.0408
 21
-20.7712
  0
LINE
  8
LAYER_1
 10
347.0408
 20
-20.7712
 11
347.0408
 21
-19.6173
  0
LINE
  8
LAYER_1
 10
347.0408
 20
-19.6173
 11
347.0768
 21
-19.6173
  0
LINE
  8
LAYER_1
 10
347.0768
 20
-19.6173
 11
348.3108
 21
-19.6173
  0
ARC
  8
LAYER_1
 10
348.27
 20
-20.2806
 40
0.6645
 50
46.60866758
 51
86.48378525
  0
ARC
  8
LAYER_1
 10
348.3361
 20
-20.1655
 40
0.5364
 50
356.9381223
 51
43.29359479
  0
ARC
  8
LAYER_1
 10
348.3265
 20
-20.1929
 40
0.5453
 50
290.0148134
 51
359.8586292
  0
ARC
  8
LAYER_1
 10
348.1501
 20
-19.8655
 40
0.9148
 50
278.085377
 51
293.3808036
  0
ENDBLK
  0
BLOCK
  8
LAYER_1
  2
AIGNBL0102000B
 70
64
 10
0
 20
0
 30
0
  3
AIGNBL0102000B
  0
LINE
  8
LAYER_1
 10
411.5851
 20
-23.8473
 11
411.5851
 21
-20.8735
  0
LINE
  8
LAYER_1
 10
411.5851
 20
-20.8735
 11
411.8963
 21
-20.8735
  0
LINE
  8
LAYER_1
 10
411.8963
 20
-20.8735
 11
411.8963
 21
-24.3668
  0
LINE
  8
LAYER_1
 10
411.8963
 20
-24.3668
 11
411.563
 21
-24.3668
  0
LINE
  8
LAYER_1
 10
411.563
 20
-24.3668
 11
409.5864
 21
-21.2497
  0
LINE
  8
LAYER_1
 10
409.5864
 20
-21.2497
 11
409.5864
 21
-24.3668
  0
LINE
  8
LAYER_1
 10
409.5864
 20
-24.3668
 11
409.2756
 21
-24.3668
  0
LINE
  8
LAYER_1
 10
409.2756
 20
-24.3668
 11
409.2756
 21
-20.8735
  0
LINE
  8
LAYER_1
 10
409.2756
 20
-20.8735
 11
409.6752
 21
-20.8735
  0
LINE
  8
LAYER_1
 10
409.6752
 20
-20.8735
 11
411.5851
 21
-23.8473
  0
ENDBLK
  0
BLOCK
  8
LAYER_1
  2
AIGNBL0102000C
 70
64
 10
0
 20
0
 30
0
  3
AIGNBL0102000C
  0
LINE
  8
LAYER_1
 10
412.9401
 20
-21.2497
 11
412.585
 21
-21.2497
  0
LINE
  8
LAYER_1
 10
412.585
 20
-21.2497
 11
412.585
 21
-20.8735
  0
LINE
  8
LAYER_1
 10
412.585
 20
-20.8735
 11
412.9401
 21
-20.8735
  0
LINE
  8
LAYER_1
 10
412.9401
 20
-20.8735
 11
412.9401
 21
-21.2497
  0
LINE
  8
LAYER_1
 10
412.918
 20
-24.3668
 11
412.6071
 21
-24.3668
  0
LINE
  8
LAYER_1
 10
412.6071
 20
-24.3668
 11
412.6071
 21
-21.9125
  0
LINE
  8
LAYER_1
 10
412.6071
 20
-21.9125
 11
412.918
 21
-21.9125
  0
LINE
  8
LAYER_1
 10
412.918
 20
-21.9125
 11
412.918
 21
-24.3668
  0
ENDBLK
  0
BLOCK
  8
LAYER_1
  2
AIGNBL0102000D
 70
64
 10
0
 20
0
 30
0
  3
AIGNBL0102000D
  0
LINE
  8
LAYER_1
 10
413.9396
 20
-24.3668
 11
413.6288
 21
-24.3668
  0
LINE
  8
LAYER_1
 10
413.6288
 20
-24.3668
 11
413.6288
 21
-20.8735
  0
LINE
  8
LAYER_1
 10
413.6288
 20
-20.8735
 11
413.9396
 21
-20.8735
  0
LINE
  8
LAYER_1
 10
413.9396
 20
-20.8735
 11
413.9396
 21
-22.4141
  0
ARC
  8
LAYER_1
 10
414.96
 20
-23.0385
 40
1.1963
 50
129.0581564
 51
148.535367
  0
ARC
  8
LAYER_1
 10
414.7662
 20
-22.8128
 40
0.8989
 50
91.66149666
 51
128.5326562
  0
ARC
  8
LAYER_1
 10
414.8031
 20
-23.0521
 40
1.1396
 50
89.86220225
 51
93.16479917
  0
ARC
  8
LAYER_1
 10
414.8414
 20
-22.8258
 40
0.914
 50
55.37270639
 51
92.23536778
  0
ARC
  8
LAYER_1
 10
414.908
 20
-22.6049
 40
0.698
 50
7.404737317
 51
49.55306535
  0
ARC
  8
LAYER_1
 10
413.9958
 20
-22.8127
 40
1.6317
 50
359.5290548
 51
10.51428456
  0
LINE
  8
LAYER_1
 10
415.6275
 20
-22.8261
 11
415.6275
 21
-24.3668
  0
LINE
  8
LAYER_1
 10
415.6275
 20
-24.3668
 11
415.3166
 21
-24.3668
  0
LINE
  8
LAYER_1
 10
415.3166
 20
-24.3668
 11
415.3166
 21
-22.862
  0
ARC
  8
LAYER_1
 10
414.1819
 20
-22.822
 40
1.1354
 50
357.9808149
 51
16.97571946
  0
ARC
  8
LAYER_1
 10
414.8516
 20
-22.6145
 40
0.4343
 50
16.58877246
 51
48.60473359
  0
ARC
  8
LAYER_1
 10
414.7681
 20
-22.7705
 40
0.6079
 50
52.42754935
 51
92.72729504
  0
ARC
  8
LAYER_1
 10
414.7394
 20
-22.8566
 40
0.6933
 50
90.01935744
 51
129.8722706
  0
ARC
  8
LAYER_1
 10
414.8722
 20
-23.062
 40
0.9365
 50
128.0467338
 51
164.2262689
  0
ARC
  8
LAYER_1
 10
414.9275
 20
-23.0543
 40
0.9879
 50
165.5296484
 51
180.2726432
  0
LINE
  8
LAYER_1
 10
413.9396
 20
-23.059
 11
413.9396
 21
-24.3668
  0
ENDBLK
  0
BLOCK
  8
LAYER_1
  2
AIGNBL0102000E
 70
64
 10
0
 20
0
 30
0
  3
AIGNBL0102000E
  0
ARC
  8
LAYER_1
 10
417.4523
 20
-23.0984
 40
1.1859
 50
50.66150285
 51
90.17219299
  0
ARC
  8
LAYER_1
 10
417.5963
 20
-22.9233
 40
0.9592
 50
14.76823995
 51
50.68858398
  0
ARC
  8
LAYER_1
 10
416.9847
 20
-23.1049
 40
1.597
 50
359.0745588
 51
15.47326638
  0
ARC
  8
LAYER_1
 10
417.093
 20
-23.1687
 40
1.489
 50
332.9248548
 51
1.463570552
  0
ARC
  8
LAYER_1
 10
417.6353
 20
-23.3951
 40
0.9042
 50
308.9730079
 51
330.0558863
  0
ARC
  8
LAYER_1
 10
417.4496
 20
-23.1734
 40
1.1934
 50
269.9580643
 51
309.2082399
  0
ARC
  8
LAYER_1
 10
417.4449
 20
-23.1825
 40
1.1843
 50
230.6338742
 51
270.1854435
  0
ARC
  8
LAYER_1
 10
417.2942
 20
-23.3637
 40
0.9487
 50
194.5571008
 51
230.7288295
  0
ARC
  8
LAYER_1
 10
417.9765
 20
-23.1597
 40
1.6605
 50
179.000404
 51
195.4530529
  0
ARC
  8
LAYER_1
 10
417.7504
 20
-23.0947
 40
1.4346
 50
152.440143
 51
181.4386246
  0
ARC
  8
LAYER_1
 10
417.267
 20
-22.8927
 40
0.9137
 50
128.8590762
 51
149.64206
  0
ARC
  8
LAYER_1
 10
417.4476
 20
-23.1044
 40
1.1919
 50
89.94611367
 51
129.2345685
  0
ARC
  8
LAYER_1
 10
417.4185
 20
-22.9342
 40
0.7485
 50
129.9572066
 51
170.513785
  0
ARC
  8
LAYER_1
 10
418.171
 20
-23.1173
 40
1.5219
 50
168.3825372
 51
180.5048727
  0
ARC
  8
LAYER_1
 10
417.8611
 20
-23.1755
 40
1.2128
 50
177.8808615
 51
209.7571183
  0
ARC
  8
LAYER_1
 10
417.3433
 20
-23.4171
 40
0.6452
 50
213.9608257
 51
231.0572481
  0
ARC
  8
LAYER_1
 10
417.4417
 20
-23.3002
 40
0.7979
 50
230.8389638
 51
270.5040327
  0
ARC
  8
LAYER_1
 10
417.4542
 20
-23.2962
 40
0.8019
 50
269.6052449
 51
309.0587652
  0
ARC
  8
LAYER_1
 10
417.4798
 20
-23.3484
 40
0.7453
 50
310.0589858
 51
350.8067204
  0
ARC
  8
LAYER_1
 10
416.6577
 20
-23.1467
 40
1.5906
 50
348.3621131
 51
0.5748288016
  0
ARC
  8
LAYER_1
 10
417.0867
 20
-23.089
 40
1.1623
 50
357.9424682
 51
30.405245
  0
ARC
  8
LAYER_1
 10
417.5444
 20
-22.8738
 40
0.6602
 50
34.40440476
 51
51.04012059
  0
ARC
  8
LAYER_1
 10
417.4544
 20
-22.9827
 40
0.8015
 50
50.93185275
 51
90.40413715
  0
ARC
  8
LAYER_1
 10
417.4436
 20
-22.9844
 40
0.8033
 50
89.63368354
 51
129.02332
  0
ENDBLK
  0
BLOCK
  8
LAYER_1
  2
AIGNBL0102000F
 70
64
 10
0
 20
0
 30
0
  3
AIGNBL0102000F
  0
ARC
  8
LAYER_1
 10
420.5796
 20
-22.5887
 40
0.6525
 50
6.051320533
 51
49.62775877
  0
ARC
  8
LAYER_1
 10
419.8054
 20
-22.7489
 40
1.4414
 50
359.7755146
 51
9.137569315
  0
LINE
  8
LAYER_1
 10
421.2468
 20
-22.7545
 11
421.2468
 21
-24.3668
  0
LINE
  8
LAYER_1
 10
421.2468
 20
-24.3668
 11
420.936
 21
-24.3668
  0
LINE
  8
LAYER_1
 10
420.936
 20
-24.3668
 11
420.936
 21
-22.7903
  0
ARC
  8
LAYER_1
 10
420.0763
 20
-22.7612
 40
0.8602
 50
358.0627892
 51
19.48702453
  0
ARC
  8
LAYER_1
 10
420.4796
 20
-22.6202
 40
0.4329
 50
19.69341995
 51
49.96487887
  0
ARC
  8
LAYER_1
 10
420.4244
 20
-22.744
 40
0.5645
 50
53.76025628
 51
94.44920695
  0
ARC
  8
LAYER_1
 10
420.3811
 20
-22.8751
 40
0.6939
 50
90.0393251
 51
129.8523029
  0
ARC
  8
LAYER_1
 10
420.6402
 20
-23.2052
 40
1.1134
 50
129.2074979
 51
162.0492078
  0
LINE
  8
LAYER_1
 10
419.581
 20
-22.862
 11
419.581
 21
-24.3668
  0
LINE
  8
LAYER_1
 10
419.581
 20
-24.3668
 11
419.2702
 21
-24.3668
  0
LINE
  8
LAYER_1
 10
419.2702
 20
-24.3668
 11
419.2702
 21
-21.9125
  0
LINE
  8
LAYER_1
 10
419.2702
 20
-21.9125
 11
419.581
 21
-21.9125
  0
LINE
  8
LAYER_1
 10
419.581
 20
-21.9125
 11
419.581
 21
-22.4141
  0
ARC
  8
LAYER_1
 10
420.5016
 20
-23.0054
 40
1.0941
 50
128.1836958
 51
147.2859099
  0
ARC
  8
LAYER_1
 10
420.4738
 20
-22.9246
 40
1.0138
 50
94.72061871
 51
129.7725865
  0
ARC
  8
LAYER_1
 10
420.4466
 20
-22.831
 40
0.9185
 50
89.95863166
 51
93.51281454
  0
ARC
  8
LAYER_1
 10
420.4666
 20
-22.8041
 40
0.8918
 50
53.92353347
 51
91.24303927
  0
ARC
  8
LAYER_1
 10
420.5184
 20
-22.6931
 40
0.7719
 50
51.1826414
 51
52.17419476
  0
ENDBLK
  0
BLOCK
  8
LAYER_1
  2
AIGNBL01020010
 70
64
 10
0
 20
0
 30
0
  3
AIGNBL01020010
  0
LINE
  8
LAYER_1
 10
424.7334
 20
-24.3668
 11
424.3559
 21
-24.3668
  0
LINE
  8
LAYER_1
 10
424.3559
 20
-24.3668
 11
423.201
 21
-22.7545
  0
LINE
  8
LAYER_1
 10
423.201
 20
-22.7545
 11
422.246
 21
-22.7545
  0
LINE
  8
LAYER_1
 10
422.246
 20
-22.7545
 11
422.246
 21
-24.3668
  0
LINE
  8
LAYER_1
 10
422.246
 20
-24.3668
 11
421.9352
 21
-24.3668
  0
LINE
  8
LAYER_1
 10
421.9352
 20
-24.3668
 11
421.9352
 21
-20.8735
  0
LINE
  8
LAYER_1
 10
421.9352
 20
-20.8735
 11
423.3343
 21
-20.8735
  0
ARC
  8
LAYER_1
 10
423.3829
 20
-22.585
 40
1.7122
 50
64.78634393
 51
91.62619302
  0
ARC
  8
LAYER_1
 10
423.6868
 20
-21.817
 40
0.8895
 50
51.15329891
 51
61.42266901
  0
ARC
  8
LAYER_1
 10
423.7185
 20
-21.7764
 40
0.8379
 50
358.0408562
 51
51.09666914
  0
ARC
  8
LAYER_1
 10
423.6735
 20
-21.8218
 40
0.8826
 50
324.0494532
 51
1.091409513
  0
ARC
  8
LAYER_1
 10
423.7046
 20
-21.8121
 40
0.8635
 50
308.7156784
 51
322.3130614
  0
ARC
  8
LAYER_1
 10
423.6274
 20
-21.6952
 40
1.0031
 50
290.1144101
 51
307.9832712
  0
ARC
  8
LAYER_1
 10
423.3557
 20
-20.9366
 40
1.8088
 50
275.667509
 51
289.9328649
  0
LINE
  8
LAYER_1
 10
423.5343
 20
-22.7366
 11
424.7334
 21
-24.3668
  0
LINE
  8
LAYER_1
 10
422.246
 20
-21.1422
 11
422.246
 21
-22.4858
  0
LINE
  8
LAYER_1
 10
422.246
 20
-22.4858
 11
423.2455
 21
-22.4858
  0
ARC
  8
LAYER_1
 10
423.2809
 20
-20.7775
 40
1.7086
 50
268.8133874
 51
283.8344155
  0
ARC
  8
LAYER_1
 10
423.4946
 20
-21.6259
 40
0.8338
 50
283.5109031
 51
307.3499878
  0
ARC
  8
LAYER_1
 10
423.6274
 20
-21.8245
 40
0.5955
 50
308.7937325
 51
1.880035625
  0
ARC
  8
LAYER_1
 10
423.6107
 20
-21.7931
 40
0.6121
 50
358.8899656
 51
50.43626632
  0
ARC
  8
LAYER_1
 10
423.5509
 20
-21.9013
 40
0.7338
 50
52.21889406
 51
73.15361896
  0
ARC
  8
LAYER_1
 10
423.3693
 20
-22.5293
 40
1.3875
 50
73.49211873
 51
91.44652297
  0
LINE
  8
LAYER_1
 10
423.3343
 20
-21.1422
 11
422.246
 21
-21.1422
  0
ENDBLK
  0
BLOCK
  8
LAYER_1
  2
AIGNBL01020011
 70
64
 10
0
 20
0
 30
0
  3
AIGNBL01020011
  0
ARC
  8
LAYER_1
 10
426.5736
 20
-22.6166
 40
0.6477
 50
358.8953531
 51
51.5122055
  0
LINE
  8
LAYER_1
 10
427.2212
 20
-22.6291
 11
427.2212
 21
-23.8473
  0
ARC
  8
LAYER_1
 10
428.2597
 20
-23.8577
 40
1.0385
 50
179.4270287
 51
209.3553955
  0
LINE
  8
LAYER_1
 10
427.3545
 20
-24.3668
 11
427.0212
 21
-24.3668
  0
ARC
  8
LAYER_1
 10
427.6209
 20
-23.9851
 40
0.7109
 50
181.8885664
 51
212.4786329
  0
ARC
  8
LAYER_1
 10
426.2494
 20
-23.439
 40
0.8725
 50
307.2065985
 51
319.2522862
  0
ARC
  8
LAYER_1
 10
426.1215
 20
-23.3133
 40
1.0503
 50
274.3420676
 51
308.6162638
  0
ARC
  8
LAYER_1
 10
426.0727
 20
-23.0526
 40
1.3142
 50
269.7147373
 51
275.6018165
  0
ARC
  8
LAYER_1
 10
426.0423
 20
-23.3526
 40
1.0145
 50
236.2873254
 51
271.3502145
  0
ARC
  8
LAYER_1
 10
425.9625
 20
-23.5279
 40
0.8249
 50
231.0752257
 51
234.1383564
  0
ARC
  8
LAYER_1
 10
425.7769
 20
-23.7539
 40
0.5325
 50
178.4803253
 51
231.3299955
  0
ARC
  8
LAYER_1
 10
425.7802
 20
-23.7441
 40
0.5357
 50
125.8271978
 51
179.5390433
  0
ARC
  8
LAYER_1
 10
426.2627
 20
-24.3734
 40
1.3285
 50
111.962259
 51
126.8127369
  0
ARC
  8
LAYER_1
 10
427.1787
 20
-26.5589
 40
3.6981
 50
106.0707479
 51
112.4604085
  0
ARC
  8
LAYER_1
 10
425.119
 20
-19.1359
 40
4.0057
 50
284.9887474
 51
296.5649077
  0
ARC
  8
LAYER_1
 10
426.3753
 20
-22.6855
 40
0.5361
 50
356.4479126
 51
44.97164605
  0
ARC
  8
LAYER_1
 10
426.3373
 20
-22.84
 40
0.6773
 50
51.96445878
 51
92.27588681
  0
ARC
  8
LAYER_1
 10
426.3008
 20
-22.8281
 40
0.6649
 50
89.17404094
 51
128.3382067
  0
ARC
  8
LAYER_1
 10
426.2567
 20
-22.7467
 40
0.5739
 50
129.9271075
 51
171.8063081
  0
LINE
  8
LAYER_1
 10
425.6887
 20
-22.6649
 11
425.3333
 21
-22.6649
  0
ARC
  8
LAYER_1
 10
426.1658
 20
-22.7866
 40
0.8413
 50
126.4186559
 51
171.6811472
  0
ARC
  8
LAYER_1
 10
426.2318
 20
-22.8369
 40
0.9213
 50
91.53886103
 51
127.8634325
  0
ARC
  8
LAYER_1
 10
426.3044
 20
-23.2695
 40
1.3571
 50
89.74461501
 51
94.11281446
  0
ARC
  8
LAYER_1
 10
426.345
 20
-23.042
 40
1.13
 50
58.62486312
 51
91.75591127
  0
ARC
  8
LAYER_1
 10
426.4917
 20
-22.7134
 40
0.7744
 50
51.22732516
 51
55.23260182
  0
ARC
  8
LAYER_1
 10
425.8413
 20
-20.8727
 40
2.3856
 50
282.4346248
 51
296.6244974
  0
ARC
  8
LAYER_1
 10
426.675
 20
-24.893
 40
1.7207
 50
100.7174926
 51
123.1962243
  0
ARC
  8
LAYER_1
 10
425.9561
 20
-23.7595
 40
0.3791
 50
126.0646439
 51
177.0173138
  0
ARC
  8
LAYER_1
 10
425.8927
 20
-23.7331
 40
0.3153
 50
181.2206789
 51
234.7605386
  0
ARC
  8
LAYER_1
 10
426.0446
 20
-23.5351
 40
0.5647
 50
233.7672375
 51
274.4422258
  0
ARC
  8
LAYER_1
 10
426.1172
 20
-23.2313
 40
0.8672
 50
268.0912501
 51
305.5653049
  0
ARC
  8
LAYER_1
 10
425.5813
 20
-22.5997
 40
1.6941
 50
307.8840876
 51
321.677782
  0
LINE
  8
LAYER_1
 10
426.9104
 20
-23.6502
 11
426.9104
 21
-23.0053
  0
ENDBLK
  0
BLOCK
  8
LAYER_1
  2
AIGNBL01020012
 70
64
 10
0
 20
0
 30
0
  3
AIGNBL01020012
  0
LINE
  8
LAYER_1
 10
428.3982
 20
-21.2497
 11
428.0432
 21
-21.2497
  0
LINE
  8
LAYER_1
 10
428.0432
 20
-21.2497
 11
428.0432
 21
-20.8735
  0
LINE
  8
LAYER_1
 10
428.0432
 20
-20.8735
 11
428.3982
 21
-20.8735
  0
LINE
  8
LAYER_1
 10
428.3982
 20
-20.8735
 11
428.3982
 21
-21.2497
  0
LINE
  8
LAYER_1
 10
428.3761
 20
-24.3668
 11
428.0653
 21
-24.3668
  0
LINE
  8
LAYER_1
 10
428.0653
 20
-24.3668
 11
428.0653
 21
-21.9125
  0
LINE
  8
LAYER_1
 10
428.0653
 20
-21.9125
 11
428.3761
 21
-21.9125
  0
LINE
  8
LAYER_1
 10
428.3761
 20
-21.9125
 11
428.3761
 21
-24.3668
  0
ENDBLK
  0
BLOCK
  8
LAYER_1
  2
AIGNBL01020013
 70
64
 10
0
 20
0
 30
0
  3
AIGNBL01020013
  0
LINE
  8
LAYER_1
 10
429.3978
 20
-23.0769
 11
430.7081
 21
-21.9125
  0
LINE
  8
LAYER_1
 10
430.7081
 20
-21.9125
 11
431.1077
 21
-21.9125
  0
LINE
  8
LAYER_1
 10
431.1077
 20
-21.9125
 11
430.1086
 21
-22.8261
  0
LINE
  8
LAYER_1
 10
430.1086
 20
-22.8261
 11
431.2635
 21
-24.3668
  0
LINE
  8
LAYER_1
 10
431.2635
 20
-24.3668
 11
430.8857
 21
-24.3668
  0
LINE
  8
LAYER_1
 10
430.8857
 20
-24.3668
 11
429.8865
 21
-23.0232
  0
LINE
  8
LAYER_1
 10
429.8865
 20
-23.0232
 11
429.3978
 21
-23.4352
  0
LINE
  8
LAYER_1
 10
429.3978
 20
-23.4352
 11
429.3978
 21
-24.3668
  0
LINE
  8
LAYER_1
 10
429.3978
 20
-24.3668
 11
429.0869
 21
-24.3668
  0
LINE
  8
LAYER_1
 10
429.0869
 20
-24.3668
 11
429.0869
 21
-20.8735
  0
LINE
  8
LAYER_1
 10
429.0869
 20
-20.8735
 11
429.3978
 21
-20.8735
  0
LINE
  8
LAYER_1
 10
429.3978
 20
-20.8735
 11
429.3978
 21
-23.0769
  0
ENDBLK
  0
BLOCK
  8
LAYER_1
  2
AIGNBL01020014
 70
64
 10
0
 20
0
 30
0
  3
AIGNBL01020014
  0
ARC
  8
LAYER_1
 10
433.2286
 20
-22.8153
 40
0.8773
 50
12.60535839
 51
49.78015098
  0
ARC
  8
LAYER_1
 10
432.1191
 20
-23.1385
 40
2.032
 50
358.7043305
 51
14.67021056
  0
LINE
  8
LAYER_1
 10
434.1505
 20
-23.1844
 11
432.2848
 21
-23.1844
  0
ARC
  8
LAYER_1
 10
433.4502
 20
-23.1813
 40
1.1654
 50
180.1541271
 51
212.9251105
  0
ARC
  8
LAYER_1
 10
432.9598
 20
-23.4409
 40
0.6146
 50
217.4544653
 51
231.0501541
  0
ARC
  8
LAYER_1
 10
433.0773
 20
-23.3006
 40
0.7976
 50
230.8301274
 51
270.5128691
  0
ARC
  8
LAYER_1
 10
433.0899
 20
-23.2962
 40
0.8019
 50
269.6052449
 51
309.0587652
  0
ARC
  8
LAYER_1
 10
433.2355
 20
-23.4788
 40
0.5684
 50
309.2572881
 51
349.8955148
  0
LINE
  8
LAYER_1
 10
433.7951
 20
-23.5785
 11
434.106
 21
-23.5785
  0
ARC
  8
LAYER_1
 10
433.2857
 20
-23.4864
 40
0.8255
 50
314.8960604
 51
353.5965947
  0
ARC
  8
LAYER_1
 10
433.3324
 20
-23.5113
 40
0.7751
 50
308.7219829
 51
313.7478398
  0
ARC
  8
LAYER_1
 10
433.1054
 20
-23.2323
 40
1.1347
 50
268.9374945
 51
308.8494155
  0
ARC
  8
LAYER_1
 10
433.0667
 20
-23.1399
 40
1.227
 50
239.2915575
 51
270.8243559
  0
ARC
  8
LAYER_1
 10
433.0172
 20
-23.2674
 40
1.0923
 50
230.9757754
 51
238.1127847
  0
ARC
  8
LAYER_1
 10
432.9285
 20
-23.3859
 40
0.9445
 50
194.4673121
 51
230.6254269
  0
ARC
  8
LAYER_1
 10
433.6634
 20
-23.1637
 40
1.7118
 50
178.8963074
 51
195.5256383
  0
ARC
  8
LAYER_1
 10
433.4156
 20
-23.0958
 40
1.4641
 50
152.2570094
 51
181.3661544
  0
ARC
  8
LAYER_1
 10
432.9655
 20
-22.9089
 40
0.9798
 50
128.8084293
 51
149.6793015
  0
ARC
  8
LAYER_1
 10
433.0067
 20
-22.9728
 40
1.0554
 50
94.53864952
 51
128.3744089
  0
ARC
  8
LAYER_1
 10
433.0753
 20
-23.3201
 40
1.4076
 50
89.62815208
 51
96.20276689
  0
ARC
  8
LAYER_1
 10
433.1028
 20
-23.074
 40
1.1617
 50
58.69526604
 51
90.90628106
  0
ARC
  8
LAYER_1
 10
433.1599
 20
-22.9335
 40
1.0122
 50
51.13395218
 51
57.32732918
  0
ARC
  8
LAYER_1
 10
432.9246
 20
-22.9252
 40
0.8927
 50
0.6118269149
 51
37.95172425
  0
ARC
  8
LAYER_1
 10
433.2269
 20
-22.7505
 40
0.549
 50
42.98225932
 51
50.89942591
  0
ARC
  8
LAYER_1
 10
433.1085
 20
-22.9116
 40
0.7487
 50
51.64329529
 51
91.84593876
  0
ARC
  8
LAYER_1
 10
433.0622
 20
-22.983
 40
0.82
 50
88.4452454
 51
126.5779796
  0
ARC
  8
LAYER_1
 10
433.0672
 20
-22.9317
 40
0.7826
 50
129.1157072
 51
178.829112
  0
LINE
  8
LAYER_1
 10
432.2848
 20
-22.9157
 11
433.8172
 21
-22.9157
  0
ENDBLK
  0
BLOCK
  8
LAYER_1
  2
AIGNBL01020015
 70
64
 10
0
 20
0
 30
0
  3
AIGNBL01020015
  0
ARC
  8
LAYER_1
 10
436.1486
 20
-22.5887
 40
0.6525
 50
6.051320533
 51
49.62775877
  0
ARC
  8
LAYER_1
 10
435.3744
 20
-22.7489
 40
1.4414
 50
359.7755146
 51
9.137569315
  0
LINE
  8
LAYER_1
 10
436.8158
 20
-22.7545
 11
436.8158
 21
-24.3668
  0
LINE
  8
LAYER_1
 10
436.8158
 20
-24.3668
 11
436.505
 21
-24.3668
  0
LINE
  8
LAYER_1
 10
436.505
 20
-24.3668
 11
436.505
 21
-22.7903
  0
ARC
  8
LAYER_1
 10
435.6453
 20
-22.7612
 40
0.8602
 50
358.0627892
 51
19.48702453
  0
ARC
  8
LAYER_1
 10
436.0486
 20
-22.6202
 40
0.4329
 50
19.69341995
 51
49.96487887
  0
ARC
  8
LAYER_1
 10
435.9935
 20
-22.7437
 40
0.5642
 50
53.74913583
 51
94.46032741
  0
ARC
  8
LAYER_1
 10
435.95
 20
-22.8747
 40
0.6935
 50
90.03590281
 51
129.8639993
  0
ARC
  8
LAYER_1
 10
436.2082
 20
-23.2044
 40
1.1121
 50
129.1871985
 51
162.0695072
  0
LINE
  8
LAYER_1
 10
435.1501
 20
-22.862
 11
435.1501
 21
-24.3668
  0
LINE
  8
LAYER_1
 10
435.1501
 20
-24.3668
 11
434.8392
 21
-24.3668
  0
LINE
  8
LAYER_1
 10
434.8392
 20
-24.3668
 11
434.8392
 21
-21.9125
  0
LINE
  8
LAYER_1
 10
434.8392
 20
-21.9125
 11
435.1501
 21
-21.9125
  0
LINE
  8
LAYER_1
 10
435.1501
 20
-21.9125
 11
435.1501
 21
-22.4141
  0
ARC
  8
LAYER_1
 10
436.0678
 20
-23.0028
 40
1.0903
 50
128.1496285
 51
147.3199772
  0
ARC
  8
LAYER_1
 10
436.0427
 20
-22.924
 40
1.0132
 50
94.71600563
 51
129.7843011
  0
ARC
  8
LAYER_1
 10
436.0156
 20
-22.8309
 40
0.9184
 50
89.95857338
 51
93.51287669
  0
ARC
  8
LAYER_1
 10
436.0357
 20
-22.8039
 40
0.8917
 50
53.9196421
 51
91.2469403
  0
ARC
  8
LAYER_1
 10
436.0873
 20
-22.6932
 40
0.7721
 50
51.1823524
 51
52.17362777
  0
ENDBLK
  0
BLOCK
  8
LAYER_1
  2
AIGNBL01020016
 70
64
 10
0
 20
0
 30
0
  3
AIGNBL01020016
  0
LINE
  8
LAYER_1
 10
438.9479
 20
-23.9368
 11
440.0141
 21
-20.8735
  0
LINE
  8
LAYER_1
 10
440.0141
 20
-20.8735
 11
440.3916
 21
-20.8735
  0
LINE
  8
LAYER_1
 10
440.3916
 20
-20.8735
 11
439.1258
 21
-24.3668
  0
LINE
  8
LAYER_1
 10
439.1258
 20
-24.3668
 11
438.7704
 21
-24.3668
  0
LINE
  8
LAYER_1
 10
438.7704
 20
-24.3668
 11
437.5045
 21
-20.8735
  0
LINE
  8
LAYER_1
 10
437.5045
 20
-20.8735
 11
437.882
 21
-20.8735
  0
LINE
  8
LAYER_1
 10
437.882
 20
-20.8735
 11
438.9479
 21
-23.9368
  0
ENDBLK
  0
BLOCK
  8
LAYER_1
  2
AIGNBL01020017
 70
64
 10
0
 20
0
 30
0
  3
AIGNBL01020017
  0
ARC
  8
LAYER_1
 10
442.357
 20
-22.8153
 40
0.8773
 50
12.60535839
 51
49.78015098
  0
ARC
  8
LAYER_1
 10
441.2475
 20
-23.1385
 40
2.032
 50
358.7043305
 51
14.67021056
  0
LINE
  8
LAYER_1
 10
443.2789
 20
-23.1844
 11
441.4132
 21
-23.1844
  0
ARC
  8
LAYER_1
 10
442.5786
 20
-23.1813
 40
1.1654
 50
180.1541271
 51
212.9251105
  0
ARC
  8
LAYER_1
 10
442.0882
 20
-23.4409
 40
0.6146
 50
217.4544653
 51
231.0501541
  0
ARC
  8
LAYER_1
 10
442.2056
 20
-23.3006
 40
0.7975
 50
230.8292577
 51
270.5067322
  0
ARC
  8
LAYER_1
 10
442.2183
 20
-23.2961
 40
0.802
 50
269.6014655
 51
309.0555381
  0
ARC
  8
LAYER_1
 10
442.3639
 20
-23.4788
 40
0.5684
 50
309.2572881
 51
349.8955148
  0
LINE
  8
LAYER_1
 10
442.9235
 20
-23.5785
 11
443.2344
 21
-23.5785
  0
ARC
  8
LAYER_1
 10
442.4141
 20
-23.4864
 40
0.8255
 50
314.8960604
 51
353.5965947
  0
ARC
  8
LAYER_1
 10
442.4608
 20
-23.5113
 40
0.7751
 50
308.7219829
 51
313.7478398
  0
ARC
  8
LAYER_1
 10
442.2338
 20
-23.2323
 40
1.1347
 50
268.9331756
 51
308.8489442
  0
ARC
  8
LAYER_1
 10
442.1951
 20
-23.1401
 40
1.2268
 50
239.288891
 51
270.822613
  0
ARC
  8
LAYER_1
 10
442.1456
 20
-23.2674
 40
1.0924
 50
230.9759145
 51
238.1123973
  0
ARC
  8
LAYER_1
 10
442.0569
 20
-23.3859
 40
0.9445
 50
194.4673121
 51
230.6254269
  0
ARC
  8
LAYER_1
 10
442.7918
 20
-23.1637
 40
1.7118
 50
178.8963074
 51
195.5256383
  0
ARC
  8
LAYER_1
 10
442.544
 20
-23.0958
 40
1.4641
 50
152.2570094
 51
181.3661544
  0
ARC
  8
LAYER_1
 10
442.0939
 20
-22.9089
 40
0.9798
 50
128.8084293
 51
149.6793015
  0
ARC
  8
LAYER_1
 10
442.1351
 20
-22.9728
 40
1.0554
 50
94.5420834
 51
128.3746356
  0
ARC
  8
LAYER_1
 10
442.2036
 20
-23.3195
 40
1.407
 50
89.62866055
 51
96.2039328
  0
ARC
  8
LAYER_1
 10
442.2311
 20
-23.0742
 40
1.1619
 50
58.69802063
 51
90.90817191
  0
ARC
  8
LAYER_1
 10
442.2884
 20
-22.9335
 40
1.0121
 50
51.13382282
 51
57.32765886
  0
ARC
  8
LAYER_1
 10
442.053
 20
-22.9252
 40
0.8927
 50
0.6118269148
 51
37.95172425
  0
ARC
  8
LAYER_1
 10
442.3553
 20
-22.7505
 40
0.549
 50
42.98225932
 51
50.89942591
  0
ARC
  8
LAYER_1
 10
442.2369
 20
-22.9116
 40
0.7487
 50
51.6443233
 51
91.851885
  0
ARC
  8
LAYER_1
 10
442.1905
 20
-22.9829
 40
0.8199
 50
88.44847601
 51
126.5811863
  0
ARC
  8
LAYER_1
 10
442.1956
 20
-22.9317
 40
0.7826
 50
129.1157072
 51
178.829112
  0
LINE
  8
LAYER_1
 10
441.4132
 20
-22.9157
 11
442.9456
 21
-22.9157
  0
ENDBLK
  0
BLOCK
  8
LAYER_1
  2
AIGNBL01020018
 70
64
 10
0
 20
0
 30
0
  3
AIGNBL01020018
  0
ARC
  8
LAYER_1
 10
445.2624
 20
-22.7791
 40
0.8377
 50
1.683276657
 51
51.06605126
  0
LINE
  8
LAYER_1
 10
446.0997
 20
-22.7545
 11
445.7664
 21
-22.7545
  0
ARC
  8
LAYER_1
 10
445.1222
 20
-22.7725
 40
0.6445
 50
1.597237293
 51
45.70981563
  0
ARC
  8
LAYER_1
 10
445.2734
 20
-22.6685
 40
0.4658
 50
50.10159936
 51
50.97837998
  0
ARC
  8
LAYER_1
 10
445.1489
 20
-22.8415
 40
0.6787
 50
52.00800242
 51
92.22480384
  0
ARC
  8
LAYER_1
 10
445.1173
 20
-22.9672
 40
0.804
 50
89.62153146
 51
128.9945028
  0
ARC
  8
LAYER_1
 10
445.1242
 20
-22.9599
 40
0.8027
 50
129.7095234
 51
169.2383847
  0
ARC
  8
LAYER_1
 10
445.8088
 20
-23.1337
 40
1.5083
 50
167.6063946
 51
180.5653725
  0
ARC
  8
LAYER_1
 10
445.5126
 20
-23.1935
 40
1.2129
 50
177.8776841
 51
209.7531783
  0
ARC
  8
LAYER_1
 10
444.9945
 20
-23.4351
 40
0.6448
 50
213.9644615
 51
231.0723734
  0
ARC
  8
LAYER_1
 10
445.0855
 20
-23.3396
 40
0.7764
 50
230.2781449
 51
269.4471814
  0
ARC
  8
LAYER_1
 10
445.0982
 20
-23.4809
 40
0.6354
 50
268.1802574
 51
306.6648982
  0
ARC
  8
LAYER_1
 10
445.0468
 20
-23.4705
 40
0.6753
 50
309.6313204
 51
331.3959845
  0
ARC
  8
LAYER_1
 10
444.6132
 20
-23.2466
 40
1.1632
 50
331.9405103
 51
352.4534227
  0
LINE
  8
LAYER_1
 10
445.7664
 20
-23.3994
 11
446.0997
 21
-23.3994
  0
ARC
  8
LAYER_1
 10
444.9159
 20
-23.3302
 40
1.1858
 50
324.4717917
 51
356.654566
  0
ARC
  8
LAYER_1
 10
445.2907
 20
-23.5439
 40
0.7579
 50
308.8797879
 51
321.1555968
  0
ARC
  8
LAYER_1
 10
445.1102
 20
-23.3262
 40
1.0406
 50
269.4427039
 51
309.0906518
  0
ARC
  8
LAYER_1
 10
445.076
 20
-23.147
 40
1.2201
 50
239.4756042
 51
271.1328127
  0
ARC
  8
LAYER_1
 10
444.9819
 20
-23.3728
 40
0.9783
 50
231.0737229
 51
237.5038096
  0
ARC
  8
LAYER_1
 10
445.0046
 20
-23.3487
 40
1.0113
 50
196.2076981
 51
230.9284391
  0
ARC
  8
LAYER_1
 10
445.555
 20
-23.1775
 40
1.5877
 50
178.9571715
 51
196.5979576
  0
ARC
  8
LAYER_1
 10
445.4311
 20
-23.1137
 40
1.464
 50
152.2522295
 51
181.3642106
  0
ARC
  8
LAYER_1
 10
444.9817
 20
-22.927
 40
0.9802
 50
128.8196472
 51
149.67893
  0
ARC
  8
LAYER_1
 10
445.0863
 20
-23.0662
 40
1.1542
 50
88.19746034
 51
128.5358562
  0
ARC
  8
LAYER_1
 10
445.1435
 20
-23.0011
 40
1.0888
 50
57.47761268
 51
91.09750413
  0
ARC
  8
LAYER_1
 10
445.2115
 20
-22.8435
 40
0.9198
 50
51.1221789
 51
55.77272022
  0
ENDBLK
  0
BLOCK
  8
LAYER_1
  2
AIGNBL01020019
 70
64
 10
0
 20
0
 30
0
  3
AIGNBL01020019
  0
LINE
  8
LAYER_1
 10
447.1659
 20
-22.1812
 11
446.7884
 21
-22.1812
  0
LINE
  8
LAYER_1
 10
446.7884
 20
-22.1812
 11
446.7884
 21
-21.9125
  0
LINE
  8
LAYER_1
 10
446.7884
 20
-21.9125
 11
447.1659
 21
-21.9125
  0
LINE
  8
LAYER_1
 10
447.1659
 20
-21.9125
 11
447.1659
 21
-21.2318
  0
LINE
  8
LAYER_1
 10
447.1659
 20
-21.2318
 11
447.4767
 21
-21.2318
  0
LINE
  8
LAYER_1
 10
447.4767
 20
-21.2318
 11
447.4767
 21
-21.9125
  0
LINE
  8
LAYER_1
 10
447.4767
 20
-21.9125
 11
448.1208
 21
-21.9125
  0
LINE
  8
LAYER_1
 10
448.1208
 20
-21.9125
 11
448.1208
 21
-22.1812
  0
LINE
  8
LAYER_1
 10
448.1208
 20
-22.1812
 11
447.4767
 21
-22.1812
  0
LINE
  8
LAYER_1
 10
447.4767
 20
-22.1812
 11
447.4767
 21
-23.8831
  0
ARC
  8
LAYER_1
 10
447.6715
 20
-23.8969
 40
0.1953
 50
175.9549756
 51
229.0018003
  0
ARC
  8
LAYER_1
 10
447.7323
 20
-23.7498
 40
0.3498
 50
237.3230989
 51
275.4317757
  0
ARC
  8
LAYER_1
 10
447.6935
 20
-22.0498
 40
2.0496
 50
272.0097612
 51
283.3108603
  0
LINE
  8
LAYER_1
 10
448.1654
 20
-24.0443
 11
448.1654
 21
-24.313
  0
ARC
  8
LAYER_1
 10
447.7569
 20
-22.8015
 40
1.5657
 50
268.6807438
 51
285.1216927
  0
ARC
  8
LAYER_1
 10
447.6745
 20
-23.6679
 40
0.7004
 50
237.5992903
 51
273.7981536
  0
ARC
  8
LAYER_1
 10
447.5477
 20
-23.9678
 40
0.3831
 50
175.3615279
 51
229.5523501
  0
LINE
  8
LAYER_1
 10
447.1659
 20
-23.9368
 11
447.1659
 21
-22.1812
  0
ENDBLK
  0
BLOCK
  8
LAYER_1
  2
AIGNBL0102001A
 70
64
 10
0
 20
0
 30
0
  3
AIGNBL0102001A
  0
ARC
  8
LAYER_1
 10
449.9898
 20
-23.0987
 40
1.1862
 50
50.66677427
 51
90.17171201
  0
ARC
  8
LAYER_1
 10
450.1339
 20
-22.9233
 40
0.9592
 50
14.76823995
 51
50.68858398
  0
ARC
  8
LAYER_1
 10
449.5223
 20
-23.1049
 40
1.597
 50
359.0745588
 51
15.47326638
  0
ARC
  8
LAYER_1
 10
449.6306
 20
-23.1687
 40
1.489
 50
332.9248548
 51
1.463570552
  0
ARC
  8
LAYER_1
 10
450.1729
 20
-23.3951
 40
0.9042
 50
308.9730079
 51
330.0558863
  0
ARC
  8
LAYER_1
 10
449.9871
 20
-23.1732
 40
1.1936
 50
269.9562788
 51
309.2052349
  0
ARC
  8
LAYER_1
 10
449.9824
 20
-23.1825
 40
1.1844
 50
230.6348894
 51
270.1844284
  0
ARC
  8
LAYER_1
 10
449.8321
 20
-23.3634
 40
0.9491
 50
194.5638459
 51
230.717391
  0
ARC
  8
LAYER_1
 10
450.5135
 20
-23.1596
 40
1.6601
 50
179.0015303
 51
195.4587807
  0
ARC
  8
LAYER_1
 10
450.2878
 20
-23.0947
 40
1.4345
 50
152.4352517
 51
181.4366148
  0
ARC
  8
LAYER_1
 10
449.8049
 20
-22.8929
 40
0.9142
 50
128.8709262
 51
149.6419077
  0
ARC
  8
LAYER_1
 10
449.9852
 20
-23.1048
 40
1.1923
 50
89.95302455
 51
129.2276577
  0
ARC
  8
LAYER_1
 10
449.9557
 20
-22.934
 40
0.7481
 50
129.9426778
 51
170.5241534
  0
ARC
  8
LAYER_1
 10
450.7094
 20
-23.1173
 40
1.5227
 50
168.3896326
 51
180.5054784
  0
ARC
  8
LAYER_1
 10
450.3987
 20
-23.1756
 40
1.2129
 50
177.8776841
 51
209.7531783
  0
ARC
  8
LAYER_1
 10
449.8806
 20
-23.4172
 40
0.6448
 50
213.9644615
 51
231.0723734
  0
ARC
  8
LAYER_1
 10
449.9791
 20
-23.3008
 40
0.7974
 50
230.8249409
 51
270.5110491
  0
ARC
  8
LAYER_1
 10
449.9918
 20
-23.2965
 40
0.8016
 50
269.5985724
 51
309.0654377
  0
ARC
  8
LAYER_1
 10
450.0176
 20
-23.3484
 40
0.7452
 50
310.0430385
 51
350.8041923
  0
ARC
  8
LAYER_1
 10
449.1956
 20
-23.1467
 40
1.5903
 50
348.3604548
 51
0.5752092068
  0
ARC
  8
LAYER_1
 10
449.6246
 20
-23.089
 40
1.1619
 50
357.9411261
 51
30.41357781
  0
ARC
  8
LAYER_1
 10
450.082
 20
-22.8739
 40
0.6602
 50
34.41537859
 51
51.05519408
  0
ARC
  8
LAYER_1
 10
449.992
 20
-22.9822
 40
0.801
 50
50.91885077
 51
90.41713913
  0
ARC
  8
LAYER_1
 10
449.981
 20
-22.9841
 40
0.8029
 50
89.63079039
 51
129.0332197
  0
ENDBLK
  0
BLOCK
  8
LAYER_1
  2
AIGNBL0102001B
 70
64
 10
0
 20
0
 30
0
  3
AIGNBL0102001B
  0
ARC
  8
LAYER_1
 10
453.1984
 20
-23.2641
 40
1.0477
 50
91.97641172
 51
126.0400003
  0
ARC
  8
LAYER_1
 10
453.1437
 20
-23.1517
 40
0.9248
 50
127.3935971
 51
128.9082912
  0
ARC
  8
LAYER_1
 10
453.3856
 20
-23.4359
 40
1.298
 50
129.3388101
 51
160.172392
  0
ARC
  8
LAYER_1
 10
453.7262
 20
-23.6022
 40
1.6753
 50
158.7720401
 51
163.6528483
  0
LINE
  8
LAYER_1
 10
452.1186
 20
-23.1307
 11
452.1186
 21
-24.3668
  0
LINE
  8
LAYER_1
 10
452.1186
 20
-24.3668
 11
451.8078
 21
-24.3668
  0
LINE
  8
LAYER_1
 10
451.8078
 20
-24.3668
 11
451.8078
 21
-21.9125
  0
LINE
  8
LAYER_1
 10
451.8078
 20
-21.9125
 11
452.1186
 21
-21.9125
  0
LINE
  8
LAYER_1
 10
452.1186
 20
-21.9125
 11
452.1186
 21
-22.5574
  0
ARC
  8
LAYER_1
 10
453.0426
 20
-23.0042
 40
1.0263
 50
126.6854221
 51
154.190519
  0
ARC
  8
LAYER_1
 10
453.1917
 20
-23.1489
 40
1.2319
 50
96.74353549
 51
128.2269731
  0
ARC
  8
LAYER_1
 10
453.2912
 20
-23.5652
 40
1.6577
 50
94.46061072
 51
98.47202668
  0
LINE
  8
LAYER_1
 10
453.1623
 20
-21.9125
 11
453.1623
 21
-22.217
  0
ENDBLK
  0
BLOCK
  8
LAYER_1
  2
AIGNBL0102001C
 70
64
 10
0
 20
0
 30
0
  3
AIGNBL0102001C
  0
ARC
  8
LAYER_1
 10
457.2191
 20
-22.2368
 40
1.3729
 50
22.00654621
 51
51.6500167
  0
ARC
  8
LAYER_1
 10
457.1865
 20
-22.2241
 40
1.3986
 50
3.959491083
 51
21.02324604
  0
LINE
  8
LAYER_1
 10
458.5817
 20
-22.1275
 11
458.2263
 21
-22.1275
  0
ARC
  8
LAYER_1
 10
456.9383
 20
-22.3371
 40
1.305
 50
9.243777606
 51
39.90748912
  0
ARC
  8
LAYER_1
 10
457.2032
 20
-22.1646
 40
0.9918
 50
42.08295968
 51
51.07953506
  0
ARC
  8
LAYER_1
 10
457.2182
 20
-22.1451
 40
0.9672
 50
51.04301918
 51
90.79785854
  0
ARC
  8
LAYER_1
 10
457.2046
 20
-22.1851
 40
1.0071
 50
89.99375193
 51
129.7595084
  0
ARC
  8
LAYER_1
 10
457.283
 20
-22.2925
 40
1.1398
 50
129.3376781
 51
161.8421636
  0
ARC
  8
LAYER_1
 10
458.1158
 20
-22.5864
 40
2.0228
 50
161.2831493
 51
181.7180446
  0
ARC
  8
LAYER_1
 10
458.1944
 20
-22.7016
 40
2.1012
 50
178.511837
 51
202.8960359
  0
ARC
  8
LAYER_1
 10
457.1391
 20
-23.094
 40
0.9776
 50
205.7715322
 51
230.4037019
  0
ARC
  8
LAYER_1
 10
457.1247
 20
-23.0798
 40
0.9796
 50
231.585392
 51
266.9467326
  0
ARC
  8
LAYER_1
 10
457.1768
 20
-22.7817
 40
1.2805
 50
265.3254867
 51
270.2401977
  0
ARC
  8
LAYER_1
 10
457.2033
 20
-22.9724
 40
1.09
 50
268.8929536
 51
302.4954904
  0
ARC
  8
LAYER_1
 10
457.2723
 20
-23.1322
 40
0.9186
 50
304.2203888
 51
308.8772074
  0
ARC
  8
LAYER_1
 10
457.2303
 20
-23.1075
 40
0.9643
 50
309.8958196
 51
345.795109
  0
ARC
  8
LAYER_1
 10
456.403
 20
-22.8307
 40
1.8354
 50
343.7549687
 51
353.4159697
  0
LINE
  8
LAYER_1
 10
458.2263
 20
-23.0411
 11
458.5817
 21
-23.0411
  0
ARC
  8
LAYER_1
 10
456.8159
 20
-22.9118
 40
1.7706
 50
329.512763
 51
355.8133277
  0
ARC
  8
LAYER_1
 10
457.4355
 20
-23.2236
 40
1.0794
 50
309.0227604
 51
327.0873334
  0
ARC
  8
LAYER_1
 10
457.2452
 20
-22.975
 40
1.3924
 50
268.3335414
 51
308.6646952
  0
ARC
  8
LAYER_1
 10
457.1883
 20
-22.8094
 40
1.5575
 50
242.6574863
 51
270.6025838
  0
ARC
  8
LAYER_1
 10
457.1578
 20
-22.9218
 40
1.4439
 50
231.025797
 51
241.6821659
  0
ARC
  8
LAYER_1
 10
457.0158
 20
-23.1132
 40
1.2058
 50
198.8267533
 51
230.5520207
  0
ARC
  8
LAYER_1
 10
457.7629
 20
-22.8137
 40
2.0099
 50
188.8832421
 51
200.0355982
  0
ARC
  8
LAYER_1
 10
458.9113
 20
-22.6332
 40
3.1725
 50
179.6026618
 51
188.9012914
  0
ARC
  8
LAYER_1
 10
457.8683
 20
-22.5801
 40
2.1297
 50
156.9967553
 51
180.8361337
  0
ARC
  8
LAYER_1
 10
457.2875
 20
-22.3798
 40
1.5173
 50
128.7135698
 51
155.3870176
  0
ARC
  8
LAYER_1
 10
457.2533
 20
-22.3028
 40
1.436
 50
100.5743802
 51
129.5719364
  0
ARC
  8
LAYER_1
 10
457.204
 20
-22.1793
 40
1.3058
 50
89.97078972
 51
99.44504489
  0
ARC
  8
LAYER_1
 10
457.2233
 20
-22.2985
 40
1.4251
 50
61.29722516
 51
90.74946429
  0
ARC
  8
LAYER_1
 10
457.2729
 20
-22.1515
 40
1.2727
 50
51.16648936
 51
60.07345224
  0
ENDBLK
  0
BLOCK
  8
LAYER_1
  2
AIGNBL0102001D
 70
64
 10
0
 20
0
 30
0
  3
AIGNBL0102001D
  0
ARC
  8
LAYER_1
 10
460.4065
 20
-23.0983
 40
1.1858
 50
50.66048807
 51
90.17320777
  0
ARC
  8
LAYER_1
 10
460.551
 20
-22.9231
 40
0.9587
 50
14.7613227
 51
50.70004692
  0
ARC
  8
LAYER_1
 10
459.9384
 20
-23.1049
 40
1.5975
 50
359.0734531
 51
15.46741135
  0
ARC
  8
LAYER_1
 10
460.0471
 20
-23.1688
 40
1.4891
 50
332.9296754
 51
1.46551095
  0
ARC
  8
LAYER_1
 10
460.5899
 20
-23.3953
 40
0.9038
 50
308.9611357
 51
330.0560601
  0
ARC
  8
LAYER_1
 10
460.4039
 20
-23.1738
 40
1.193
 50
269.9511589
 51
309.2151452
  0
ARC
  8
LAYER_1
 10
460.3991
 20
-23.1825
 40
1.1844
 50
230.6348894
 51
270.1844284
  0
ARC
  8
LAYER_1
 10
460.2484
 20
-23.3637
 40
0.9487
 50
194.5571008
 51
230.7288295
  0
ARC
  8
LAYER_1
 10
460.9307
 20
-23.1597
 40
1.6605
 50
179.000404
 51
195.4530529
  0
ARC
  8
LAYER_1
 10
460.7046
 20
-23.0947
 40
1.4346
 50
152.440143
 51
181.4386246
  0
ARC
  8
LAYER_1
 10
460.2212
 20
-22.8927
 40
0.9137
 50
128.8590762
 51
149.64206
  0
ARC
  8
LAYER_1
 10
460.4019
 20
-23.1048
 40
1.1923
 50
89.95302455
 51
129.2276577
  0
ARC
  8
LAYER_1
 10
460.3726
 20
-22.9342
 40
0.7484
 50
129.941227
 51
170.5112719
  0
ARC
  8
LAYER_1
 10
461.1249
 20
-23.1173
 40
1.5217
 50
168.3809413
 51
180.5052149
  0
ARC
  8
LAYER_1
 10
460.815
 20
-23.1756
 40
1.2125
 50
177.8795135
 51
209.7652959
  0
ARC
  8
LAYER_1
 10
460.2975
 20
-23.417
 40
0.6452
 50
213.9717645
 51
231.0723404
  0
ARC
  8
LAYER_1
 10
460.3958
 20
-23.3008
 40
0.7974
 50
230.8249409
 51
270.5110491
  0
ARC
  8
LAYER_1
 10
460.4085
 20
-23.2964
 40
0.8017
 50
269.6008139
 51
309.0631962
  0
ARC
  8
LAYER_1
 10
460.4344
 20
-23.3486
 40
0.7449
 50
310.0444612
 51
350.8169273
  0
ARC
  8
LAYER_1
 10
459.6111
 20
-23.1467
 40
1.5914
 50
348.3690332
 51
0.5754868321
  0
ARC
  8
LAYER_1
 10
460.0409
 20
-23.0889
 40
1.1623
 50
357.9391698
 51
30.40125814
  0
ARC
  8
LAYER_1
 10
460.4989
 20
-22.8736
 40
0.6599
 50
34.40806127
 51
51.0552368
  0
ARC
  8
LAYER_1
 10
460.4086
 20
-22.9825
 40
0.8013
 50
50.92748548
 51
90.40850442
  0
ARC
  8
LAYER_1
 10
460.3977
 20
-22.9841
 40
0.8029
 50
89.63079039
 51
129.0332197
  0
ENDBLK
  0
BLOCK
  8
LAYER_1
  2
AIGNBL0102001E
 70
64
 10
0
 20
0
 30
0
  3
AIGNBL0102001E
  0
ARC
  8
LAYER_1
 10
463.6152
 20
-23.2645
 40
1.0481
 50
91.9787093
 51
126.0323074
  0
ARC
  8
LAYER_1
 10
463.5608
 20
-23.1528
 40
0.9261
 50
127.3780567
 51
128.8912214
  0
ARC
  8
LAYER_1
 10
463.8006
 20
-23.4343
 40
1.2957
 50
129.3286197
 51
159.9071987
  0
ARC
  8
LAYER_1
 10
464.135
 20
-23.5989
 40
1.6668
 50
158.5415452
 51
163.6865828
  0
LINE
  8
LAYER_1
 10
462.5353
 20
-23.1307
 11
462.5353
 21
-24.3668
  0
LINE
  8
LAYER_1
 10
462.5353
 20
-24.3668
 11
462.2244
 21
-24.3668
  0
LINE
  8
LAYER_1
 10
462.2244
 20
-24.3668
 11
462.2244
 21
-21.9125
  0
LINE
  8
LAYER_1
 10
462.2244
 20
-21.9125
 11
462.5353
 21
-21.9125
  0
LINE
  8
LAYER_1
 10
462.5353
 20
-21.9125
 11
462.5353
 21
-22.5574
  0
ARC
  8
LAYER_1
 10
463.4576
 20
-23.0029
 40
1.0242
 50
126.6565608
 51
154.2193804
  0
ARC
  8
LAYER_1
 10
463.6084
 20
-23.1489
 40
1.2319
 50
96.74353549
 51
128.2269731
  0
ARC
  8
LAYER_1
 10
463.7079
 20
-23.5652
 40
1.6577
 50
94.46061072
 51
98.47202668
  0
LINE
  8
LAYER_1
 10
463.579
 20
-21.9125
 11
463.579
 21
-22.217
  0
ENDBLK
  0
BLOCK
  8
LAYER_1
  2
AIGNBL0102001F
 70
64
 10
0
 20
0
 30
0
  3
AIGNBL0102001F
  0
LINE
  8
LAYER_1
 10
464.5785
 20
-25.0296
 11
464.2677
 21
-25.0296
  0
LINE
  8
LAYER_1
 10
464.2677
 20
-25.0296
 11
464.2677
 21
-21.9125
  0
LINE
  8
LAYER_1
 10
464.2677
 20
-21.9125
 11
464.5785
 21
-21.9125
  0
LINE
  8
LAYER_1
 10
464.5785
 20
-21.9125
 11
464.5785
 21
-22.3783
  0
ARC
  8
LAYER_1
 10
465.4979
 20
-22.9685
 40
1.0925
 50
128.1694285
 51
147.3001772
  0
ARC
  8
LAYER_1
 10
465.3757
 20
-22.7867
 40
0.8743
 50
89.84136555
 51
129.2360821
  0
ARC
  8
LAYER_1
 10
465.3951
 20
-22.8769
 40
0.9645
 50
55.40618938
 51
91.01287696
  0
ARC
  8
LAYER_1
 10
465.4365
 20
-22.7811
 40
0.8625
 50
51.13485596
 51
54.05794089
  0
ARC
  8
LAYER_1
 10
465.34
 20
-22.8953
 40
1.0119
 50
16.22207487
 51
50.93393694
  0
ARC
  8
LAYER_1
 10
464.7918
 20
-23.0662
 40
1.586
 50
358.9637285
 51
16.61983005
  0
ARC
  8
LAYER_1
 10
464.6875
 20
-23.139
 40
1.6906
 50
334.4997467
 51
1.496051426
  0
ARC
  8
LAYER_1
 10
465.3808
 20
-23.4178
 40
0.9461
 50
309.1201677
 51
331.6619241
  0
ARC
  8
LAYER_1
 10
465.3694
 20
-23.3993
 40
0.9676
 50
269.2050108
 51
308.9484173
  0
ARC
  8
LAYER_1
 10
465.3568
 20
-23.4835
 40
0.8833
 50
230.9728555
 51
269.9496968
  0
ARC
  8
LAYER_1
 10
465.2587
 20
-23.5649
 40
0.7587
 50
206.2948612
 51
232.85753
  0
LINE
  8
LAYER_1
 10
464.5785
 20
-23.901
 11
464.5785
 21
-25.0296
  0
ARC
  8
LAYER_1
 10
465.35
 20
-23.4639
 40
0.6368
 50
309.5636748
 51
332.3251624
  0
ARC
  8
LAYER_1
 10
465.0259
 20
-23.2993
 40
1.0003
 50
332.5963649
 51
348.2856215
  0
ARC
  8
LAYER_1
 10
464.1568
 20
-23.1201
 40
1.8877
 50
348.3166878
 51
0.7645015274
  0
ARC
  8
LAYER_1
 10
464.5501
 20
-23.0622
 40
1.4946
 50
358.7447011
 51
14.79146485
  0
ARC
  8
LAYER_1
 10
465.3076
 20
-22.856
 40
0.7095
 50
14.31099849
 51
48.50658934
  0
ARC
  8
LAYER_1
 10
465.3691
 20
-22.8347
 40
0.6536
 50
51.31142991
 51
91.15150389
  0
ARC
  8
LAYER_1
 10
465.3485
 20
-22.9154
 40
0.7343
 50
89.41636835
 51
128.7014341
  0
ARC
  8
LAYER_1
 10
465.3995
 20
-22.9616
 40
0.8022
 50
129.4803755
 51
169.0282108
  0
ARC
  8
LAYER_1
 10
466.0184
 20
-23.1175
 40
1.44
 50
167.6242357
 51
180.5237551
  0
ARC
  8
LAYER_1
 10
465.7865
 20
-23.1689
 40
1.2086
 50
178.1878604
 51
209.919186
  0
ARC
  8
LAYER_1
 10
465.3455
 20
-23.3701
 40
0.7274
 50
213.5162952
 51
231.1760708
  0
ARC
  8
LAYER_1
 10
465.3376
 20
-23.3948
 40
0.7034
 50
230.4127015
 51
269.6645989
  0
ARC
  8
LAYER_1
 10
465.3434
 20
-23.434
 40
0.6641
 50
269.1433981
 51
308.3605837
  0
ENDBLK
  0
BLOCK
  8
LAYER_1
  2
AIGNBL01020020
 70
64
 10
0
 20
0
 30
0
  3
AIGNBL01020020
  0
LINE
  8
LAYER_1
 10
467.5101
 20
-23.9906
 11
467.5101
 21
-24.3668
  0
LINE
  8
LAYER_1
 10
467.5101
 20
-24.3668
 11
467.066
 21
-24.3668
  0
LINE
  8
LAYER_1
 10
467.066
 20
-24.3668
 11
467.066
 21
-23.9906
  0
LINE
  8
LAYER_1
 10
467.066
 20
-23.9906
 11
467.5101
 21
-23.9906
  0
ENDBLK
  0
BLOCK
  8
LAYER_2
  2
AIGNBL02020003
 70
64
 10
0
 20
0
 30
0
  3
AIGNBL02020003
  0
LINE
  8
LAYER_2
 10
217.5736
 20
163.9632
 11
285.5736
 21
163.9632
  0
LINE
  8
LAYER_2
 10
285.5736
 20
163.9632
 11
285.5736
 21
43.9632
  0
LINE
  8
LAYER_2
 10
285.5736
 20
43.9632
 11
217.5736
 21
43.9632
  0
LINE
  8
LAYER_2
 10
217.5736
 20
43.9632
 11
217.5736
 21
163.9632
  0
ENDBLK
  0
BLOCK
  8
LAYER_2
  2
AIGNBL02020004
 70
64
 10
0
 20
0
 30
0
  3
AIGNBL02020004
  0
LINE
  8
LAYER_2
 10
217.5736
 20
163.9632
 11
219.7736
 21
163.9632
  0
ENDBLK
  0
BLOCK
  8
LAYER_2
  2
AIGNBL02020005
 70
64
 10
0
 20
0
 30
0
  3
AIGNBL02020005
  0
LINE
  8
LAYER_2
 10
219.7736
 20
163.9632
 11
219.7736
 21
43.9632
  0
ENDBLK
  0
BLOCK
  8
LAYER_2
  2
AIGNBL02020006
 70
64
 10
0
 20
0
 30
0
  3
AIGNBL02020006
  0
LINE
  8
LAYER_2
 10
285.5736
 20
163.9632
 11
283.3736
 21
163.9632
  0
ENDBLK
  0
BLOCK
  8
LAYER_2
  2
AIGNBL02020007
 70
64
 10
0
 20
0
 30
0
  3
AIGNBL02020007
  0
LINE
  8
LAYER_2
 10
283.3736
 20
163.9632
 11
283.3736
 21
43.9632
  0
ENDBLK
  0
BLOCK
  8
LAYER_2
  2
AIGNBL02020008
 70
64
 10
0
 20
0
 30
0
  3
AIGNBL02020008
  0
LINE
  8
LAYER_2
 10
219.7736
 20
163.9632
 11
219.7736
 21
137.9632
  0
ENDBLK
  0
BLOCK
  8
LAYER_2
  2
AIGNBL02020009
 70
64
 10
0
 20
0
 30
0
  3
AIGNBL02020009
  0
LINE
  8
LAYER_2
 10
219.7736
 20
137.9632
 11
283.3736
 21
137.9632
  0
LINE
  8
LAYER_2
 10
283.3736
 20
137.9632
 11
283.3736
 21
69.9632
  0
LINE
  8
LAYER_2
 10
283.3736
 20
69.9632
 11
219.7736
 21
69.9632
  0
LINE
  8
LAYER_2
 10
219.7736
 20
69.9632
 11
219.7736
 21
137.9632
  0
ENDBLK
  0
BLOCK
  8
LAYER_2
  2
AIGNBL0202000A
 70
64
 10
0
 20
0
 30
0
  3
AIGNBL0202000A
  0
LINE
  8
LAYER_2
 10
229.7736
 20
52.9632
 11
219.7736
 21
52.9632
  0
LINE
  8
LAYER_2
 10
219.7736
 20
52.9632
 11
219.7736
 21
43.9632
  0
LINE
  8
LAYER_2
 10
219.7736
 20
43.9632
 11
232.7736
 21
43.9632
  0
LINE
  8
LAYER_2
 10
232.7736
 20
43.9632
 11
232.7736
 21
52.9632
  0
ENDBLK
  0
BLOCK
  8
LAYER_2
  2
AIGNBL0202000B
 70
64
 10
0
 20
0
 30
0
  3
AIGNBL0202000B
  0
LINE
  8
LAYER_2
 10
270.3736
 20
52.9632
 11
270.3736
 21
43.9632
  0
LINE
  8
LAYER_2
 10
270.3736
 20
43.9632
 11
283.3736
 21
43.9632
  0
LINE
  8
LAYER_2
 10
283.3736
 20
43.9632
 11
283.3736
 21
52.9632
  0
LINE
  8
LAYER_2
 10
283.3736
 20
52.9632
 11
273.3736
 21
52.9632
  0
ENDBLK
  0
BLOCK
  8
LAYER_2
  2
AIGNBL0202000C
 70
64
 10
0
 20
0
 30
0
  3
AIGNBL0202000C
  0
LINE
  8
LAYER_2
 10
229.7736
 20
52.9632
 11
229.7736
 21
69.9632
  0
LINE
  8
LAYER_2
 10
229.7736
 20
69.9632
 11
232.7736
 21
69.9632
  0
ENDBLK
  0
BLOCK
  8
LAYER_2
  2
AIGNBL0202000D
 70
64
 10
0
 20
0
 30
0
  3
AIGNBL0202000D
  0
LINE
  8
LAYER_2
 10
232.7736
 20
68.2955
 11
232.7736
 21
52.9632
  0
ENDBLK
  0
BLOCK
  8
LAYER_2
  2
AIGNBL0202000E
 70
64
 10
0
 20
0
 30
0
  3
AIGNBL0202000E
  0
LINE
  8
LAYER_2
 10
270.3736
 20
52.9632
 11
270.3736
 21
68.2955
  0
ENDBLK
  0
BLOCK
  8
LAYER_2
  2
AIGNBL0202000F
 70
64
 10
0
 20
0
 30
0
  3
AIGNBL0202000F
  0
LINE
  8
LAYER_2
 10
273.3736
 20
69.9632
 11
273.3736
 21
52.9632
  0
ENDBLK
  0
BLOCK
  8
LAYER_2
  2
AIGNBL02020010
 70
64
 10
0
 20
0
 30
0
  3
AIGNBL02020010
  0
LINE
  8
LAYER_2
 10
232.7736
 20
68.2955
 11
232.7736
 21
43.9632
  0
LINE
  8
LAYER_2
 10
232.7736
 20
43.9632
 11
243.1736
 21
43.9632
  0
LINE
  8
LAYER_2
 10
243.1736
 20
43.9632
 11
243.1736
 21
69.9632
  0
LINE
  8
LAYER_2
 10
243.1736
 20
69.9632
 11
237.0736
 21
69.9632
  0
ENDBLK
  0
BLOCK
  8
LAYER_2
  2
AIGNBL02020011
 70
64
 10
0
 20
0
 30
0
  3
AIGNBL02020011
  0
LINE
  8
LAYER_2
 10
243.1736
 20
43.9632
 11
246.3736
 21
43.9632
  0
LINE
  8
LAYER_2
 10
246.3736
 20
43.9632
 11
246.3736
 21
69.9632
  0
LINE
  8
LAYER_2
 10
246.3736
 20
69.9632
 11
243.1736
 21
69.9632
  0
LINE
  8
LAYER_2
 10
243.1736
 20
69.9632
 11
243.1736
 21
43.9632
  0
ENDBLK
  0
BLOCK
  8
LAYER_2
  2
AIGNBL02020012
 70
64
 10
0
 20
0
 30
0
  3
AIGNBL02020012
  0
LINE
  8
LAYER_2
 10
246.3736
 20
43.9632
 11
256.7736
 21
43.9632
  0
LINE
  8
LAYER_2
 10
256.7736
 20
43.9632
 11
256.7736
 21
69.9632
  0
LINE
  8
LAYER_2
 10
256.7736
 20
69.9632
 11
246.3736
 21
69.9632
  0
LINE
  8
LAYER_2
 10
246.3736
 20
69.9632
 11
246.3736
 21
43.9632
  0
ENDBLK
  0
BLOCK
  8
LAYER_2
  2
AIGNBL02020013
 70
64
 10
0
 20
0
 30
0
  3
AIGNBL02020013
  0
LINE
  8
LAYER_2
 10
256.7736
 20
43.9632
 11
259.9736
 21
43.9632
  0
LINE
  8
LAYER_2
 10
259.9736
 20
43.9632
 11
259.9736
 21
69.9632
  0
LINE
  8
LAYER_2
 10
259.9736
 20
69.9632
 11
256.7736
 21
69.9632
  0
LINE
  8
LAYER_2
 10
256.7736
 20
69.9632
 11
256.7736
 21
43.9632
  0
ENDBLK
  0
BLOCK
  8
LAYER_2
  2
AIGNBL02020014
 70
64
 10
0
 20
0
 30
0
  3
AIGNBL02020014
  0
ARC
  8
LAYER_2
 10
224.7736
 20
48.4632
 40
1.3
 50
90.00050167
 51
179.9994983
  0
ARC
  8
LAYER_2
 10
224.7736
 20
48.4632
 40
1.3
 50
1.265058369e-005
 51
89.99998734
  0
ARC
  8
LAYER_2
 10
224.7736
 20
48.4632
 40
1.3
 50
269.9994983
 51
0.0005016647244
  0
ARC
  8
LAYER_2
 10
224.7736
 20
48.4632
 40
1.3
 50
179.9999873
 51
270.0000127
  0
ENDBLK
  0
BLOCK
  8
LAYER_2
  2
AIGNBL02020015
 70
64
 10
0
 20
0
 30
0
  3
AIGNBL02020015
  0
ARC
  8
LAYER_2
 10
278.3736
 20
48.4632
 40
1.3
 50
90.00050196
 51
179.999498
  0
ARC
  8
LAYER_2
 10
278.3736
 20
48.4632
 40
1.3
 50
1.235531141e-005
 51
89.99998763
  0
ARC
  8
LAYER_2
 10
278.3736
 20
48.4632
 40
1.3
 50
269.9994981
 51
0.0005019600077
  0
ARC
  8
LAYER_2
 10
278.3736
 20
48.4632
 40
1.3
 50
179.9999876
 51
270.0000124
  0
ENDBLK
  0
BLOCK
  8
LAYER_2
  2
AIGNBL02020016
 70
64
 10
0
 20
0
 30
0
  3
AIGNBL02020016
  0
LINE
  8
LAYER_2
 10
219.7736
 20
69.9632
 11
229.7736
 21
69.9632
  0
LINE
  8
LAYER_2
 10
229.7736
 20
69.9632
 11
229.7736
 21
61.3632
  0
LINE
  8
LAYER_2
 10
229.7736
 20
61.3632
 11
219.7736
 21
61.3632
  0
LINE
  8
LAYER_2
 10
219.7736
 20
61.3632
 11
219.7736
 21
69.9632
  0
ENDBLK
  0
BLOCK
  8
LAYER_2
  2
AIGNBL02020017
 70
64
 10
0
 20
0
 30
0
  3
AIGNBL02020017
  0
ARC
  8
LAYER_2
 10
224.7736
 20
57.1632
 40
2.3
 50
90.00028353
 51
179.9997164
  0
ARC
  8
LAYER_2
 10
224.7736
 20
57.1632
 40
2.3
 50
7.127270021e-006
 51
89.99999286
  0
ARC
  8
LAYER_2
 10
224.7736
 20
57.1632
 40
2.3
 50
269.9997165
 51
0.0002835163478
  0
ARC
  8
LAYER_2
 10
224.7736
 20
57.1632
 40
2.3
 50
179.9999929
 51
270.0000071
  0
ENDBLK
  0
BLOCK
  8
LAYER_2
  2
AIGNBL02020018
 70
64
 10
0
 20
0
 30
0
  3
AIGNBL02020018
  0
LINE
  8
LAYER_2
 10
225.2736
 20
57.1632
 11
224.2736
 21
57.1632
  0
ENDBLK
  0
BLOCK
  8
LAYER_2
  2
AIGNBL02020019
 70
64
 10
0
 20
0
 30
0
  3
AIGNBL02020019
  0
LINE
  8
LAYER_2
 10
224.7736
 20
57.6632
 11
224.7736
 21
56.6632
  0
ENDBLK
  0
BLOCK
  8
LAYER_2
  2
AIGNBL0202001A
 70
64
 10
0
 20
0
 30
0
  3
AIGNBL0202001A
  0
ARC
  8
LAYER_2
 10
224.7736
 20
65.6632
 40
2.6
 50
90.00025079
 51
179.9997492
  0
ARC
  8
LAYER_2
 10
224.7736
 20
65.6632
 40
2.6
 50
6.2826987e-006
 51
89.99999371
  0
ARC
  8
LAYER_2
 10
224.7736
 20
65.6632
 40
2.6
 50
269.9997492
 51
0.0002507780167
  0
ARC
  8
LAYER_2
 10
224.7736
 20
65.6632
 40
2.6
 50
179.9999937
 51
270.0000063
  0
ENDBLK
  0
BLOCK
  8
LAYER_2
  2
AIGNBL0202001B
 70
64
 10
0
 20
0
 30
0
  3
AIGNBL0202001B
  0
LINE
  8
LAYER_2
 10
224.2736
 20
66.1632
 11
224.2736
 21
67.1632
  0
LINE
  8
LAYER_2
 10
224.2736
 20
67.1632
 11
225.2736
 21
67.1632
  0
LINE
  8
LAYER_2
 10
225.2736
 20
67.1632
 11
225.2736
 21
66.1632
  0
ENDBLK
  0
BLOCK
  8
LAYER_2
  2
AIGNBL0202001C
 70
64
 10
0
 20
0
 30
0
  3
AIGNBL0202001C
  0
LINE
  8
LAYER_2
 10
225.2736
 20
65.1632
 11
225.2736
 21
64.1632
  0
LINE
  8
LAYER_2
 10
225.2736
 20
64.1632
 11
224.2736
 21
64.1632
  0
LINE
  8
LAYER_2
 10
224.2736
 20
64.1632
 11
224.2736
 21
65.1632
  0
ENDBLK
  0
BLOCK
  8
LAYER_2
  2
AIGNBL0202001D
 70
64
 10
0
 20
0
 30
0
  3
AIGNBL0202001D
  0
LINE
  8
LAYER_2
 10
224.2736
 20
66.1632
 11
223.2736
 21
66.1632
  0
LINE
  8
LAYER_2
 10
223.2736
 20
66.1632
 11
223.2736
 21
65.1632
  0
LINE
  8
LAYER_2
 10
223.2736
 20
65.1632
 11
224.2736
 21
65.1632
  0
ENDBLK
  0
BLOCK
  8
LAYER_2
  2
AIGNBL0202001E
 70
64
 10
0
 20
0
 30
0
  3
AIGNBL0202001E
  0
LINE
  8
LAYER_2
 10
225.2736
 20
65.1632
 11
226.2736
 21
65.1632
  0
LINE
  8
LAYER_2
 10
226.2736
 20
65.1632
 11
226.2736
 21
66.1632
  0
LINE
  8
LAYER_2
 10
226.2736
 20
66.1632
 11
225.2736
 21
66.1632
  0
ENDBLK
  0
BLOCK
  8
LAYER_2
  2
AIGNBL0202001F
 70
64
 10
0
 20
0
 30
0
  3
AIGNBL0202001F
  0
LINE
  8
LAYER_2
 10
232.7736
 20
63.1632
 11
243.1736
 21
63.1632
  0
ENDBLK
  0
BLOCK
  8
LAYER_2
  2
AIGNBL02020020
 70
64
 10
0
 20
0
 30
0
  3
AIGNBL02020020
  0
LINE
  8
LAYER_2
 10
243.1736
 20
51.1632
 11
232.7736
 21
51.1632
  0
ENDBLK
  0
BLOCK
  8
LAYER_2
  2
AIGNBL02020021
 70
64
 10
0
 20
0
 30
0
  3
AIGNBL02020021
  0
LINE
  8
LAYER_2
 10
246.3736
 20
63.1632
 11
256.7736
 21
63.1632
  0
ENDBLK
  0
BLOCK
  8
LAYER_2
  2
AIGNBL02020022
 70
64
 10
0
 20
0
 30
0
  3
AIGNBL02020022
  0
LINE
  8
LAYER_2
 10
256.7736
 20
51.1632
 11
246.3736
 21
51.1632
  0
ENDBLK
  0
BLOCK
  8
LAYER_2
  2
AIGNBL02020023
 70
64
 10
0
 20
0
 30
0
  3
AIGNBL02020023
  0
LINE
  8
LAYER_2
 10
259.9736
 20
63.1632
 11
270.3736
 21
63.1632
  0
ENDBLK
  0
BLOCK
  8
LAYER_2
  2
AIGNBL02020024
 70
64
 10
0
 20
0
 30
0
  3
AIGNBL02020024
  0
LINE
  8
LAYER_2
 10
270.3736
 20
51.1632
 11
259.9736
 21
51.1632
  0
ENDBLK
  0
BLOCK
  8
LAYER_2
  2
AIGNBL02020025
 70
64
 10
0
 20
0
 30
0
  3
AIGNBL02020025
  0
LINE
  8
LAYER_2
 10
273.3736
 20
69.9632
 11
283.3736
 21
69.9632
  0
LINE
  8
LAYER_2
 10
283.3736
 20
69.9632
 11
283.3736
 21
61.3632
  0
LINE
  8
LAYER_2
 10
283.3736
 20
61.3632
 11
273.3736
 21
61.3632
  0
LINE
  8
LAYER_2
 10
273.3736
 20
61.3632
 11
273.3736
 21
69.9632
  0
ENDBLK
  0
BLOCK
  8
LAYER_2
  2
AIGNBL02020026
 70
64
 10
0
 20
0
 30
0
  3
AIGNBL02020026
  0
ARC
  8
LAYER_2
 10
278.3736
 20
57.1632
 40
2.3
 50
90.00028369
 51
179.9997163
  0
ARC
  8
LAYER_2
 10
278.3736
 20
57.1632
 40
2.3
 50
6.960375463e-006
 51
89.99999303
  0
ARC
  8
LAYER_2
 10
278.3736
 20
57.1632
 40
2.3
 50
269.9997163
 51
0.0002836832456
  0
ARC
  8
LAYER_2
 10
278.3736
 20
57.1632
 40
2.3
 50
179.999993
 51
270.000007
  0
ENDBLK
  0
BLOCK
  8
LAYER_2
  2
AIGNBL02020027
 70
64
 10
0
 20
0
 30
0
  3
AIGNBL02020027
  0
LINE
  8
LAYER_2
 10
278.8736
 20
57.1632
 11
277.8736
 21
57.1632
  0
ENDBLK
  0
BLOCK
  8
LAYER_2
  2
AIGNBL02020028
 70
64
 10
0
 20
0
 30
0
  3
AIGNBL02020028
  0
LINE
  8
LAYER_2
 10
278.3736
 20
57.6632
 11
278.3736
 21
56.6632
  0
ENDBLK
  0
BLOCK
  8
LAYER_2
  2
AIGNBL02020029
 70
64
 10
0
 20
0
 30
0
  3
AIGNBL02020029
  0
ARC
  8
LAYER_2
 10
278.3736
 20
65.6632
 40
2.6
 50
90.00025094
 51
179.999749
  0
ARC
  8
LAYER_2
 10
278.3736
 20
65.6632
 40
2.6
 50
6.135060318e-006
 51
89.99999385
  0
ARC
  8
LAYER_2
 10
278.3736
 20
65.6632
 40
2.6
 50
269.9997491
 51
0.0002509256578
  0
ARC
  8
LAYER_2
 10
278.3736
 20
65.6632
 40
2.6
 50
179.9999938
 51
270.0000061
  0
ENDBLK
  0
BLOCK
  8
LAYER_2
  2
AIGNBL0202002A
 70
64
 10
0
 20
0
 30
0
  3
AIGNBL0202002A
  0
LINE
  8
LAYER_2
 10
277.8736
 20
66.1632
 11
277.8736
 21
67.1632
  0
LINE
  8
LAYER_2
 10
277.8736
 20
67.1632
 11
278.8736
 21
67.1632
  0
LINE
  8
LAYER_2
 10
278.8736
 20
67.1632
 11
278.8736
 21
66.1632
  0
ENDBLK
  0
BLOCK
  8
LAYER_2
  2
AIGNBL0202002B
 70
64
 10
0
 20
0
 30
0
  3
AIGNBL0202002B
  0
LINE
  8
LAYER_2
 10
278.8736
 20
65.1632
 11
278.8736
 21
64.1632
  0
LINE
  8
LAYER_2
 10
278.8736
 20
64.1632
 11
277.8736
 21
64.1632
  0
LINE
  8
LAYER_2
 10
277.8736
 20
64.1632
 11
277.8736
 21
65.1632
  0
ENDBLK
  0
BLOCK
  8
LAYER_2
  2
AIGNBL0202002C
 70
64
 10
0
 20
0
 30
0
  3
AIGNBL0202002C
  0
LINE
  8
LAYER_2
 10
277.8736
 20
66.1632
 11
276.8736
 21
66.1632
  0
LINE
  8
LAYER_2
 10
276.8736
 20
66.1632
 11
276.8736
 21
65.1632
  0
LINE
  8
LAYER_2
 10
276.8736
 20
65.1632
 11
277.8736
 21
65.1632
  0
ENDBLK
  0
BLOCK
  8
LAYER_2
  2
AIGNBL0202002D
 70
64
 10
0
 20
0
 30
0
  3
AIGNBL0202002D
  0
LINE
  8
LAYER_2
 10
278.8736
 20
65.1632
 11
279.8736
 21
65.1632
  0
LINE
  8
LAYER_2
 10
279.8736
 20
65.1632
 11
279.8736
 21
66.1632
  0
LINE
  8
LAYER_2
 10
279.8736
 20
66.1632
 11
278.8736
 21
66.1632
  0
ENDBLK
  0
BLOCK
  8
LAYER_2
  2
AIGNBL0202002E
 70
64
 10
0
 20
0
 30
0
  3
AIGNBL0202002E
  0
ARC
  8
LAYER_2
 10
237.9736
 20
57.1632
 40
4
 50
90.00016305
 51
179.9998369
  0
ARC
  8
LAYER_2
 10
237.9736
 20
57.1632
 40
4
 50
4.079203578e-006
 51
89.99999591
  0
ARC
  8
LAYER_2
 10
237.9736
 20
57.1632
 40
4
 50
269.999837
 51
0.0001630401915
  0
ARC
  8
LAYER_2
 10
237.9736
 20
57.1632
 40
4
 50
179.9999959
 51
270.0000041
  0
ENDBLK
  0
BLOCK
  8
LAYER_2
  2
AIGNBL0202002F
 70
64
 10
0
 20
0
 30
0
  3
AIGNBL0202002F
  0
ARC
  8
LAYER_2
 10
251.5736
 20
57.1632
 40
4
 50
90.00016308
 51
179.9998369
  0
ARC
  8
LAYER_2
 10
251.5736
 20
57.1632
 40
4
 50
4.054849556e-006
 51
89.99999593
  0
ARC
  8
LAYER_2
 10
251.5736
 20
57.1632
 40
4
 50
269.9998369
 51
0.0001630645458
  0
ARC
  8
LAYER_2
 10
251.5736
 20
57.1632
 40
4
 50
179.9999959
 51
270.0000041
  0
ENDBLK
  0
BLOCK
  8
LAYER_2
  2
AIGNBL02020030
 70
64
 10
0
 20
0
 30
0
  3
AIGNBL02020030
  0
ARC
  8
LAYER_2
 10
265.1736
 20
57.1632
 40
4
 50
90.0001631
 51
179.9998369
  0
ARC
  8
LAYER_2
 10
265.1736
 20
57.1632
 40
4
 50
4.030495534e-006
 51
89.99999596
  0
ARC
  8
LAYER_2
 10
265.1736
 20
57.1632
 40
4
 50
269.9998369
 51
0.0001630889001
  0
ARC
  8
LAYER_2
 10
265.1736
 20
57.1632
 40
4
 50
179.9999959
 51
270.000004
  0
ENDBLK
  0
BLOCK
  8
LAYER_2
  2
AIGNBL02020031
 70
64
 10
0
 20
0
 30
0
  3
AIGNBL02020031
  0
LINE
  8
LAYER_2
 10
264.5736
 20
57.7632
 11
262.7736
 21
57.7632
  0
LINE
  8
LAYER_2
 10
262.7736
 20
57.7632
 11
262.7736
 21
56.5632
  0
LINE
  8
LAYER_2
 10
262.7736
 20
56.5632
 11
264.5736
 21
56.5632
  0
ENDBLK
  0
BLOCK
  8
LAYER_2
  2
AIGNBL02020032
 70
64
 10
0
 20
0
 30
0
  3
AIGNBL02020032
  0
LINE
  8
LAYER_2
 10
265.7736
 20
56.5632
 11
267.5736
 21
56.5632
  0
LINE
  8
LAYER_2
 10
267.5736
 20
56.5632
 11
267.5736
 21
57.7632
  0
LINE
  8
LAYER_2
 10
267.5736
 20
57.7632
 11
265.7736
 21
57.7632
  0
ENDBLK
  0
BLOCK
  8
LAYER_2
  2
AIGNBL02020033
 70
64
 10
0
 20
0
 30
0
  3
AIGNBL02020033
  0
LINE
  8
LAYER_2
 10
265.7736
 20
56.5632
 11
265.7736
 21
54.7632
  0
LINE
  8
LAYER_2
 10
265.7736
 20
54.7632
 11
264.5736
 21
54.7632
  0
LINE
  8
LAYER_2
 10
264.5736
 20
54.7632
 11
264.5736
 21
56.5632
  0
ENDBLK
  0
BLOCK
  8
LAYER_2
  2
AIGNBL02020034
 70
64
 10
0
 20
0
 30
0
  3
AIGNBL02020034
  0
LINE
  8
LAYER_2
 10
264.5736
 20
57.7632
 11
264.5736
 21
59.5632
  0
LINE
  8
LAYER_2
 10
264.5736
 20
59.5632
 11
265.7736
 21
59.5632
  0
LINE
  8
LAYER_2
 10
265.7736
 20
59.5632
 11
265.7736
 21
57.7632
  0
ENDBLK
  0
BLOCK
  8
LAYER_2
  2
AIGNBL02020035
 70
64
 10
0
 20
0
 30
0
  3
AIGNBL02020035
  0
LINE
  8
LAYER_2
 10
219.7736
 20
69.9632
 11
230.4736
 21
69.9632
  0
ENDBLK
  0
BLOCK
  8
LAYER_2
  2
AIGNBL02020036
 70
64
 10
0
 20
0
 30
0
  3
AIGNBL02020036
  0
LINE
  8
LAYER_2
 10
283.3736
 20
69.9632
 11
273.3736
 21
69.9632
  0
ENDBLK
  0
BLOCK
  8
LAYER_2
  2
AIGNBL02020037
 70
64
 10
0
 20
0
 30
0
  3
AIGNBL02020037
  0
ARC
  8
LAYER_2
 10
231.506
 20
69.9737
 40
1.0325
 50
180.5849727
 51
214.9932489
  0
ARC
  8
LAYER_2
 10
232.1355
 20
70.3905
 40
1.7872
 50
214.3653983
 51
238.5184363
  0
ARC
  8
LAYER_2
 10
233.0884
 20
71.7853
 40
3.4754
 50
237.1294391
 51
254.6039728
  0
ARC
  8
LAYER_2
 10
233.6837
 20
73.617
 40
5.4001
 50
253.673569
 51
266.9316695
  0
ARC
  8
LAYER_2
 10
233.7734
 20
74.5033
 40
6.2901
 50
266.5481662
 51
270.0017993
  0
ARC
  8
LAYER_2
 10
233.7881
 20
74.11
 40
5.8968
 50
269.8589869
 51
283.896288
  0
ARC
  8
LAYER_2
 10
234.2119
 20
72.364
 40
4.1001
 50
284.006909
 51
299.6909419
  0
ARC
  8
LAYER_2
 10
235.1486
 20
70.6788
 40
2.1723
 50
300.2455968
 51
321.3327191
  0
ARC
  8
LAYER_2
 10
235.9291
 20
70.0172
 40
1.1499
 50
322.7732369
 51
351.6817116
  0
ARC
  8
LAYER_2
 10
236.1177
 20
69.9638
 40
0.9559
 50
353.2143369
 51
359.9669426
  0
ENDBLK
  0
BLOCK
  8
LAYER_2
  2
AIGNBL02020038
 70
64
 10
0
 20
0
 30
0
  3
AIGNBL02020038
  0
ARC
  8
LAYER_2
 10
267.106
 20
69.9737
 40
1.0325
 50
180.5849727
 51
214.9932489
  0
ARC
  8
LAYER_2
 10
267.7355
 20
70.3905
 40
1.7872
 50
214.3653983
 51
238.5184363
  0
ARC
  8
LAYER_2
 10
268.6884
 20
71.7853
 40
3.4754
 50
237.1294391
 51
254.6039728
  0
ARC
  8
LAYER_2
 10
269.2837
 20
73.617
 40
5.4001
 50
253.673569
 51
266.9316695
  0
ARC
  8
LAYER_2
 10
269.3734
 20
74.5033
 40
6.2901
 50
266.5481662
 51
270.0017993
  0
ARC
  8
LAYER_2
 10
269.3881
 20
74.11
 40
5.8968
 50
269.8589869
 51
283.896288
  0
ARC
  8
LAYER_2
 10
269.8119
 20
72.364
 40
4.1001
 50
284.006909
 51
299.6909419
  0
ARC
  8
LAYER_2
 10
270.7486
 20
70.6788
 40
2.1723
 50
300.2455968
 51
321.3327191
  0
ARC
  8
LAYER_2
 10
271.5291
 20
70.0172
 40
1.1499
 50
322.7732369
 51
351.6817116
  0
ARC
  8
LAYER_2
 10
271.7177
 20
69.9638
 40
0.9559
 50
353.2143369
 51
359.9669426
  0
ENDBLK
  0
BLOCK
  8
LAYER_2
  2
AIGNBL02020039
 70
64
 10
0
 20
0
 30
0
  3
AIGNBL02020039
  0
LINE
  8
LAYER_2
 10
229.7736
 20
154.9632
 11
219.7736
 21
154.9632
  0
LINE
  8
LAYER_2
 10
219.7736
 20
154.9632
 11
219.7736
 21
163.9632
  0
LINE
  8
LAYER_2
 10
219.7736
 20
163.9632
 11
232.7736
 21
163.9632
  0
LINE
  8
LAYER_2
 10
232.7736
 20
163.9632
 11
232.7736
 21
154.9632
  0
ENDBLK
  0
BLOCK
  8
LAYER_2
  2
AIGNBL0202003A
 70
64
 10
0
 20
0
 30
0
  3
AIGNBL0202003A
  0
LINE
  8
LAYER_2
 10
270.3736
 20
154.9632
 11
270.3736
 21
163.9632
  0
LINE
  8
LAYER_2
 10
270.3736
 20
163.9632
 11
283.3736
 21
163.9632
  0
LINE
  8
LAYER_2
 10
283.3736
 20
163.9632
 11
283.3736
 21
154.9632
  0
LINE
  8
LAYER_2
 10
283.3736
 20
154.9632
 11
273.3736
 21
154.9632
  0
ENDBLK
  0
BLOCK
  8
LAYER_2
  2
AIGNBL0202003B
 70
64
 10
0
 20
0
 30
0
  3
AIGNBL0202003B
  0
LINE
  8
LAYER_2
 10
229.7736
 20
154.9632
 11
229.7736
 21
137.9632
  0
LINE
  8
LAYER_2
 10
229.7736
 20
137.9632
 11
232.7736
 21
137.9632
  0
LINE
  8
LAYER_2
 10
232.7736
 20
137.9632
 11
232.7736
 21
154.9632
  0
ENDBLK
  0
BLOCK
  8
LAYER_2
  2
AIGNBL0202003C
 70
64
 10
0
 20
0
 30
0
  3
AIGNBL0202003C
  0
LINE
  8
LAYER_2
 10
270.3736
 20
154.9632
 11
270.3736
 21
137.9632
  0
LINE
  8
LAYER_2
 10
270.3736
 20
137.9632
 11
273.3736
 21
137.9632
  0
LINE
  8
LAYER_2
 10
273.3736
 20
137.9632
 11
273.3736
 21
154.9632
  0
ENDBLK
  0
BLOCK
  8
LAYER_2
  2
AIGNBL0202003D
 70
64
 10
0
 20
0
 30
0
  3
AIGNBL0202003D
  0
LINE
  8
LAYER_2
 10
232.7736
 20
163.9632
 11
243.1736
 21
163.9632
  0
LINE
  8
LAYER_2
 10
243.1736
 20
163.9632
 11
243.1736
 21
137.9632
  0
LINE
  8
LAYER_2
 10
243.1736
 20
137.9632
 11
232.7736
 21
137.9632
  0
LINE
  8
LAYER_2
 10
232.7736
 20
137.9632
 11
232.7736
 21
163.9632
  0
ENDBLK
  0
BLOCK
  8
LAYER_2
  2
AIGNBL0202003E
 70
64
 10
0
 20
0
 30
0
  3
AIGNBL0202003E
  0
LINE
  8
LAYER_2
 10
243.1736
 20
163.9632
 11
246.3736
 21
163.9632
  0
LINE
  8
LAYER_2
 10
246.3736
 20
163.9632
 11
246.3736
 21
137.9632
  0
LINE
  8
LAYER_2
 10
246.3736
 20
137.9632
 11
243.1736
 21
137.9632
  0
LINE
  8
LAYER_2
 10
243.1736
 20
137.9632
 11
243.1736
 21
163.9632
  0
ENDBLK
  0
BLOCK
  8
LAYER_2
  2
AIGNBL0202003F
 70
64
 10
0
 20
0
 30
0
  3
AIGNBL0202003F
  0
LINE
  8
LAYER_2
 10
246.3736
 20
163.9632
 11
256.7736
 21
163.9632
  0
LINE
  8
LAYER_2
 10
256.7736
 20
163.9632
 11
256.7736
 21
137.9632
  0
LINE
  8
LAYER_2
 10
256.7736
 20
137.9632
 11
246.3736
 21
137.9632
  0
LINE
  8
LAYER_2
 10
246.3736
 20
137.9632
 11
246.3736
 21
163.9632
  0
ENDBLK
  0
BLOCK
  8
LAYER_2
  2
AIGNBL02020040
 70
64
 10
0
 20
0
 30
0
  3
AIGNBL02020040
  0
LINE
  8
LAYER_2
 10
256.7736
 20
163.9632
 11
259.9736
 21
163.9632
  0
LINE
  8
LAYER_2
 10
259.9736
 20
163.9632
 11
259.9736
 21
137.9632
  0
LINE
  8
LAYER_2
 10
259.9736
 20
137.9632
 11
256.7736
 21
137.9632
  0
LINE
  8
LAYER_2
 10
256.7736
 20
137.9632
 11
256.7736
 21
163.9632
  0
ENDBLK
  0
BLOCK
  8
LAYER_2
  2
AIGNBL02020041
 70
64
 10
0
 20
0
 30
0
  3
AIGNBL02020041
  0
ARC
  8
LAYER_2
 10
224.7736
 20
159.4632
 40
1.3
 50
90.00050106
 51
179.9994989
  0
ARC
  8
LAYER_2
 10
224.7736
 20
159.4632
 40
1.3
 50
1.203903618e-005
 51
89.99998795
  0
ARC
  8
LAYER_2
 10
224.7736
 20
159.4632
 40
1.3
 50
269.999499
 51
0.0005010531766
  0
ARC
  8
LAYER_2
 10
224.7736
 20
159.4632
 40
1.3
 50
179.9999879
 51
270.000012
  0
ENDBLK
  0
BLOCK
  8
LAYER_2
  2
AIGNBL02020042
 70
64
 10
0
 20
0
 30
0
  3
AIGNBL02020042
  0
ARC
  8
LAYER_2
 10
278.3736
 20
159.4632
 40
1.3
 50
90.00050135
 51
179.9994986
  0
ARC
  8
LAYER_2
 10
278.3736
 20
159.4632
 40
1.3
 50
1.17437639e-005
 51
89.99998824
  0
ARC
  8
LAYER_2
 10
278.3736
 20
159.4632
 40
1.3
 50
269.9994987
 51
0.0005013484603
  0
ARC
  8
LAYER_2
 10
278.3736
 20
159.4632
 40
1.3
 50
179.9999882
 51
270.0000117
  0
ENDBLK
  0
BLOCK
  8
LAYER_2
  2
AIGNBL02020043
 70
64
 10
0
 20
0
 30
0
  3
AIGNBL02020043
  0
LINE
  8
LAYER_2
 10
219.7736
 20
137.9632
 11
229.7736
 21
137.9632
  0
LINE
  8
LAYER_2
 10
229.7736
 20
137.9632
 11
229.7736
 21
146.5632
  0
LINE
  8
LAYER_2
 10
229.7736
 20
146.5632
 11
219.7736
 21
146.5632
  0
LINE
  8
LAYER_2
 10
219.7736
 20
146.5632
 11
219.7736
 21
137.9632
  0
ENDBLK
  0
BLOCK
  8
LAYER_2
  2
AIGNBL02020044
 70
64
 10
0
 20
0
 30
0
  3
AIGNBL02020044
  0
ARC
  8
LAYER_2
 10
224.7736
 20
150.7632
 40
2.3
 50
90.00028323
 51
179.9997167
  0
ARC
  8
LAYER_2
 10
224.7736
 20
150.7632
 40
2.3
 50
6.835797505e-006
 51
89.99999315
  0
ARC
  8
LAYER_2
 10
224.7736
 20
150.7632
 40
2.3
 50
269.9997168
 51
0.0002832248753
  0
ARC
  8
LAYER_2
 10
224.7736
 20
150.7632
 40
2.3
 50
179.9999931
 51
270.0000068
  0
ENDBLK
  0
BLOCK
  8
LAYER_2
  2
AIGNBL02020045
 70
64
 10
0
 20
0
 30
0
  3
AIGNBL02020045
  0
LINE
  8
LAYER_2
 10
225.2736
 20
150.7632
 11
224.2736
 21
150.7632
  0
ENDBLK
  0
BLOCK
  8
LAYER_2
  2
AIGNBL02020046
 70
64
 10
0
 20
0
 30
0
  3
AIGNBL02020046
  0
LINE
  8
LAYER_2
 10
224.7736
 20
150.2632
 11
224.7736
 21
151.2632
  0
ENDBLK
  0
BLOCK
  8
LAYER_2
  2
AIGNBL02020047
 70
64
 10
0
 20
0
 30
0
  3
AIGNBL02020047
  0
ARC
  8
LAYER_2
 10
224.7736
 20
142.2632
 40
2.6
 50
90.00025058
 51
179.9997494
  0
ARC
  8
LAYER_2
 10
224.7736
 20
142.2632
 40
2.6
 50
6.07167123e-006
 51
89.99999392
  0
ARC
  8
LAYER_2
 10
224.7736
 20
142.2632
 40
2.6
 50
269.9997494
 51
0.0002505669896
  0
ARC
  8
LAYER_2
 10
224.7736
 20
142.2632
 40
2.6
 50
179.9999939
 51
270.0000061
  0
ENDBLK
  0
BLOCK
  8
LAYER_2
  2
AIGNBL02020048
 70
64
 10
0
 20
0
 30
0
  3
AIGNBL02020048
  0
LINE
  8
LAYER_2
 10
224.2736
 20
141.7632
 11
224.2736
 21
140.7632
  0
LINE
  8
LAYER_2
 10
224.2736
 20
140.7632
 11
225.2736
 21
140.7632
  0
LINE
  8
LAYER_2
 10
225.2736
 20
140.7632
 11
225.2736
 21
141.7632
  0
ENDBLK
  0
BLOCK
  8
LAYER_2
  2
AIGNBL02020049
 70
64
 10
0
 20
0
 30
0
  3
AIGNBL02020049
  0
LINE
  8
LAYER_2
 10
225.2736
 20
142.7632
 11
225.2736
 21
143.7632
  0
LINE
  8
LAYER_2
 10
225.2736
 20
143.7632
 11
224.2736
 21
143.7632
  0
LINE
  8
LAYER_2
 10
224.2736
 20
143.7632
 11
224.2736
 21
142.7632
  0
ENDBLK
  0
BLOCK
  8
LAYER_2
  2
AIGNBL0202004A
 70
64
 10
0
 20
0
 30
0
  3
AIGNBL0202004A
  0
LINE
  8
LAYER_2
 10
224.2736
 20
141.7632
 11
223.2736
 21
141.7632
  0
LINE
  8
LAYER_2
 10
223.2736
 20
141.7632
 11
223.2736
 21
142.7632
  0
LINE
  8
LAYER_2
 10
223.2736
 20
142.7632
 11
224.2736
 21
142.7632
  0
ENDBLK
  0
BLOCK
  8
LAYER_2
  2
AIGNBL0202004B
 70
64
 10
0
 20
0
 30
0
  3
AIGNBL0202004B
  0
LINE
  8
LAYER_2
 10
225.2736
 20
142.7632
 11
226.2736
 21
142.7632
  0
LINE
  8
LAYER_2
 10
226.2736
 20
142.7632
 11
226.2736
 21
141.7632
  0
LINE
  8
LAYER_2
 10
226.2736
 20
141.7632
 11
225.2736
 21
141.7632
  0
ENDBLK
  0
BLOCK
  8
LAYER_2
  2
AIGNBL0202004C
 70
64
 10
0
 20
0
 30
0
  3
AIGNBL0202004C
  0
LINE
  8
LAYER_2
 10
232.7736
 20
144.7632
 11
243.1736
 21
144.7632
  0
ENDBLK
  0
BLOCK
  8
LAYER_2
  2
AIGNBL0202004D
 70
64
 10
0
 20
0
 30
0
  3
AIGNBL0202004D
  0
LINE
  8
LAYER_2
 10
243.1736
 20
156.7632
 11
232.7736
 21
156.7632
  0
ENDBLK
  0
BLOCK
  8
LAYER_2
  2
AIGNBL0202004E
 70
64
 10
0
 20
0
 30
0
  3
AIGNBL0202004E
  0
LINE
  8
LAYER_2
 10
246.3736
 20
144.7632
 11
256.7736
 21
144.7632
  0
ENDBLK
  0
BLOCK
  8
LAYER_2
  2
AIGNBL0202004F
 70
64
 10
0
 20
0
 30
0
  3
AIGNBL0202004F
  0
LINE
  8
LAYER_2
 10
256.7736
 20
156.7632
 11
246.3736
 21
156.7632
  0
ENDBLK
  0
BLOCK
  8
LAYER_2
  2
AIGNBL02020050
 70
64
 10
0
 20
0
 30
0
  3
AIGNBL02020050
  0
LINE
  8
LAYER_2
 10
259.9736
 20
144.7632
 11
270.3736
 21
144.7632
  0
ENDBLK
  0
BLOCK
  8
LAYER_2
  2
AIGNBL02020051
 70
64
 10
0
 20
0
 30
0
  3
AIGNBL02020051
  0
LINE
  8
LAYER_2
 10
270.3736
 20
156.7632
 11
259.9736
 21
156.7632
  0
ENDBLK
  0
BLOCK
  8
LAYER_2
  2
AIGNBL02020052
 70
64
 10
0
 20
0
 30
0
  3
AIGNBL02020052
  0
LINE
  8
LAYER_2
 10
273.3736
 20
137.9632
 11
283.3736
 21
137.9632
  0
LINE
  8
LAYER_2
 10
283.3736
 20
137.9632
 11
283.3736
 21
146.5632
  0
LINE
  8
LAYER_2
 10
283.3736
 20
146.5632
 11
273.3736
 21
146.5632
  0
LINE
  8
LAYER_2
 10
273.3736
 20
146.5632
 11
273.3736
 21
137.9632
  0
ENDBLK
  0
BLOCK
  8
LAYER_2
  2
AIGNBL02020053
 70
64
 10
0
 20
0
 30
0
  3
AIGNBL02020053
  0
ARC
  8
LAYER_2
 10
278.3736
 20
150.7632
 40
2.3
 50
90.0002834
 51
179.9997166
  0
ARC
  8
LAYER_2
 10
278.3736
 20
150.7632
 40
2.3
 50
6.668902945e-006
 51
89.99999332
  0
ARC
  8
LAYER_2
 10
278.3736
 20
150.7632
 40
2.3
 50
269.9997166
 51
0.0002833917731
  0
ARC
  8
LAYER_2
 10
278.3736
 20
150.7632
 40
2.3
 50
179.9999933
 51
270.0000067
  0
ENDBLK
  0
BLOCK
  8
LAYER_2
  2
AIGNBL02020054
 70
64
 10
0
 20
0
 30
0
  3
AIGNBL02020054
  0
LINE
  8
LAYER_2
 10
278.8736
 20
150.7632
 11
277.8736
 21
150.7632
  0
ENDBLK
  0
BLOCK
  8
LAYER_2
  2
AIGNBL02020055
 70
64
 10
0
 20
0
 30
0
  3
AIGNBL02020055
  0
LINE
  8
LAYER_2
 10
278.3736
 20
150.2632
 11
278.3736
 21
151.2632
  0
ENDBLK
  0
BLOCK
  8
LAYER_2
  2
AIGNBL02020056
 70
64
 10
0
 20
0
 30
0
  3
AIGNBL02020056
  0
ARC
  8
LAYER_2
 10
278.3736
 20
142.2632
 40
2.6
 50
90.00025072
 51
179.9997492
  0
ARC
  8
LAYER_2
 10
278.3736
 20
142.2632
 40
2.6
 50
5.924032846e-006
 51
89.99999406
  0
ARC
  8
LAYER_2
 10
278.3736
 20
142.2632
 40
2.6
 50
269.9997493
 51
0.0002507146306
  0
ARC
  8
LAYER_2
 10
278.3736
 20
142.2632
 40
2.6
 50
179.9999941
 51
270.0000059
  0
ENDBLK
  0
BLOCK
  8
LAYER_2
  2
AIGNBL02020057
 70
64
 10
0
 20
0
 30
0
  3
AIGNBL02020057
  0
LINE
  8
LAYER_2
 10
277.8736
 20
141.7632
 11
277.8736
 21
140.7632
  0
LINE
  8
LAYER_2
 10
277.8736
 20
140.7632
 11
278.8736
 21
140.7632
  0
LINE
  8
LAYER_2
 10
278.8736
 20
140.7632
 11
278.8736
 21
141.7632
  0
ENDBLK
  0
BLOCK
  8
LAYER_2
  2
AIGNBL02020058
 70
64
 10
0
 20
0
 30
0
  3
AIGNBL02020058
  0
LINE
  8
LAYER_2
 10
278.8736
 20
142.7632
 11
278.8736
 21
143.7632
  0
LINE
  8
LAYER_2
 10
278.8736
 20
143.7632
 11
277.8736
 21
143.7632
  0
LINE
  8
LAYER_2
 10
277.8736
 20
143.7632
 11
277.8736
 21
142.7632
  0
ENDBLK
  0
BLOCK
  8
LAYER_2
  2
AIGNBL02020059
 70
64
 10
0
 20
0
 30
0
  3
AIGNBL02020059
  0
LINE
  8
LAYER_2
 10
277.8736
 20
141.7632
 11
276.8736
 21
141.7632
  0
LINE
  8
LAYER_2
 10
276.8736
 20
141.7632
 11
276.8736
 21
142.7632
  0
LINE
  8
LAYER_2
 10
276.8736
 20
142.7632
 11
277.8736
 21
142.7632
  0
ENDBLK
  0
BLOCK
  8
LAYER_2
  2
AIGNBL0202005A
 70
64
 10
0
 20
0
 30
0
  3
AIGNBL0202005A
  0
LINE
  8
LAYER_2
 10
278.8736
 20
142.7632
 11
279.8736
 21
142.7632
  0
LINE
  8
LAYER_2
 10
279.8736
 20
142.7632
 11
279.8736
 21
141.7632
  0
LINE
  8
LAYER_2
 10
279.8736
 20
141.7632
 11
278.8736
 21
141.7632
  0
ENDBLK
  0
BLOCK
  8
LAYER_2
  2
AIGNBL0202005B
 70
64
 10
0
 20
0
 30
0
  3
AIGNBL0202005B
  0
ARC
  8
LAYER_2
 10
237.9736
 20
150.7632
 40
4
 50
90.00016288
 51
179.9998371
  0
ARC
  8
LAYER_2
 10
237.9736
 20
150.7632
 40
4
 50
3.911607582e-006
 51
89.99999608
  0
ARC
  8
LAYER_2
 10
237.9736
 20
150.7632
 40
4
 50
269.9998371
 51
0.0001628725954
  0
ARC
  8
LAYER_2
 10
237.9736
 20
150.7632
 40
4
 50
179.9999961
 51
270.0000039
  0
ENDBLK
  0
BLOCK
  8
LAYER_2
  2
AIGNBL0202005C
 70
64
 10
0
 20
0
 30
0
  3
AIGNBL0202005C
  0
ARC
  8
LAYER_2
 10
251.5736
 20
150.7632
 40
4
 50
90.00016291
 51
179.9998371
  0
ARC
  8
LAYER_2
 10
251.5736
 20
150.7632
 40
4
 50
3.887253416e-006
 51
89.9999961
  0
ARC
  8
LAYER_2
 10
251.5736
 20
150.7632
 40
4
 50
269.9998371
 51
0.0001628969497
  0
ARC
  8
LAYER_2
 10
251.5736
 20
150.7632
 40
4
 50
179.9999961
 51
270.0000039
  0
ENDBLK
  0
BLOCK
  8
LAYER_2
  2
AIGNBL0202005D
 70
64
 10
0
 20
0
 30
0
  3
AIGNBL0202005D
  0
ARC
  8
LAYER_2
 10
265.1736
 20
150.7632
 40
4
 50
90.00016293
 51
179.999837
  0
ARC
  8
LAYER_2
 10
265.1736
 20
150.7632
 40
4
 50
3.862899537e-006
 51
89.99999613
  0
ARC
  8
LAYER_2
 10
265.1736
 20
150.7632
 40
4
 50
269.9998371
 51
0.000162921304
  0
ARC
  8
LAYER_2
 10
265.1736
 20
150.7632
 40
4
 50
179.9999961
 51
270.0000039
  0
ENDBLK
  0
BLOCK
  8
LAYER_2
  2
AIGNBL0202005E
 70
64
 10
0
 20
0
 30
0
  3
AIGNBL0202005E
  0
LINE
  8
LAYER_2
 10
264.5736
 20
150.1632
 11
262.7736
 21
150.1632
  0
LINE
  8
LAYER_2
 10
262.7736
 20
150.1632
 11
262.7736
 21
151.3632
  0
LINE
  8
LAYER_2
 10
262.7736
 20
151.3632
 11
264.5736
 21
151.3632
  0
ENDBLK
  0
BLOCK
  8
LAYER_2
  2
AIGNBL0202005F
 70
64
 10
0
 20
0
 30
0
  3
AIGNBL0202005F
  0
LINE
  8
LAYER_2
 10
265.7736
 20
151.3632
 11
267.5736
 21
151.3632
  0
LINE
  8
LAYER_2
 10
267.5736
 20
151.3632
 11
267.5736
 21
150.1632
  0
LINE
  8
LAYER_2
 10
267.5736
 20
150.1632
 11
265.7736
 21
150.1632
  0
ENDBLK
  0
BLOCK
  8
LAYER_2
  2
AIGNBL02020060
 70
64
 10
0
 20
0
 30
0
  3
AIGNBL02020060
  0
LINE
  8
LAYER_2
 10
265.7736
 20
151.3632
 11
265.7736
 21
153.1632
  0
LINE
  8
LAYER_2
 10
265.7736
 20
153.1632
 11
264.5736
 21
153.1632
  0
LINE
  8
LAYER_2
 10
264.5736
 20
153.1632
 11
264.5736
 21
151.3632
  0
ENDBLK
  0
BLOCK
  8
LAYER_2
  2
AIGNBL02020061
 70
64
 10
0
 20
0
 30
0
  3
AIGNBL02020061
  0
LINE
  8
LAYER_2
 10
264.5736
 20
150.1632
 11
264.5736
 21
148.3632
  0
LINE
  8
LAYER_2
 10
264.5736
 20
148.3632
 11
265.7736
 21
148.3632
  0
LINE
  8
LAYER_2
 10
265.7736
 20
148.3632
 11
265.7736
 21
150.1632
  0
ENDBLK
  0
BLOCK
  8
LAYER_2
  2
AIGNBL02020062
 70
64
 10
0
 20
0
 30
0
  3
AIGNBL02020062
  0
LINE
  8
LAYER_2
 10
219.7736
 20
137.9632
 11
233.7736
 21
137.9632
  0
ENDBLK
  0
BLOCK
  8
LAYER_2
  2
AIGNBL02020063
 70
64
 10
0
 20
0
 30
0
  3
AIGNBL02020063
  0
ARC
  8
LAYER_2
 10
249.306
 20
137.9527
 40
1.0325
 50
145.0067511
 51
179.4150273
  0
ARC
  8
LAYER_2
 10
249.9355
 20
137.5359
 40
1.7872
 50
121.4815637
 51
145.6346017
  0
ARC
  8
LAYER_2
 10
250.8884
 20
136.1411
 40
3.4754
 50
105.3960272
 51
122.8705609
  0
ARC
  8
LAYER_2
 10
251.4837
 20
134.3094
 40
5.4001
 50
93.0683305
 51
106.326431
  0
ARC
  8
LAYER_2
 10
251.5734
 20
133.4231
 40
6.2901
 50
89.99820071
 51
93.45183375
  0
ARC
  8
LAYER_2
 10
251.5881
 20
133.8164
 40
5.8968
 50
76.10371196
 51
90.1410131
  0
ARC
  8
LAYER_2
 10
252.0119
 20
135.5624
 40
4.1001
 50
60.30905807
 51
75.99309096
  0
ARC
  8
LAYER_2
 10
252.9486
 20
137.2476
 40
2.1723
 50
38.66728095
 51
59.75440315
  0
ARC
  8
LAYER_2
 10
253.7291
 20
137.9092
 40
1.1499
 50
8.318288427
 51
37.22676313
  0
ARC
  8
LAYER_2
 10
253.9177
 20
137.9626
 40
0.9559
 50
0.03305744959
 51
6.78566312
  0
ENDBLK
  0
BLOCK
  8
LAYER_2
  2
AIGNBL02020064
 70
64
 10
0
 20
0
 30
0
  3
AIGNBL02020064
  0
LINE
  8
LAYER_2
 10
270.3736
 20
137.9632
 11
259.9736
 21
137.9632
  0
ENDBLK
  0
BLOCK
  8
LAYER_2
  2
AIGNBL02020065
 70
64
 10
0
 20
0
 30
0
  3
AIGNBL02020065
  0
LINE
  8
LAYER_2
 10
270.3736
 20
163.9632
 11
259.9736
 21
163.9632
  0
ENDBLK
  0
BLOCK
  8
LAYER_2
  2
AIGNBL02020066
 70
64
 10
0
 20
0
 30
0
  3
AIGNBL02020066
  0
LINE
  8
LAYER_2
 10
250.9736
 20
150.1632
 11
249.1736
 21
150.1632
  0
LINE
  8
LAYER_2
 10
249.1736
 20
150.1632
 11
249.1736
 21
151.3632
  0
LINE
  8
LAYER_2
 10
249.1736
 20
151.3632
 11
250.9736
 21
151.3632
  0
ENDBLK
  0
BLOCK
  8
LAYER_2
  2
AIGNBL02020067
 70
64
 10
0
 20
0
 30
0
  3
AIGNBL02020067
  0
LINE
  8
LAYER_2
 10
252.1736
 20
151.3632
 11
253.9736
 21
151.3632
  0
LINE
  8
LAYER_2
 10
253.9736
 20
151.3632
 11
253.9736
 21
150.1632
  0
LINE
  8
LAYER_2
 10
253.9736
 20
150.1632
 11
252.1736
 21
150.1632
  0
ENDBLK
  0
BLOCK
  8
LAYER_2
  2
AIGNBL02020068
 70
64
 10
0
 20
0
 30
0
  3
AIGNBL02020068
  0
LINE
  8
LAYER_2
 10
252.1736
 20
151.3632
 11
252.1736
 21
153.1632
  0
LINE
  8
LAYER_2
 10
252.1736
 20
153.1632
 11
250.9736
 21
153.1632
  0
LINE
  8
LAYER_2
 10
250.9736
 20
153.1632
 11
250.9736
 21
151.3632
  0
ENDBLK
  0
BLOCK
  8
LAYER_2
  2
AIGNBL02020069
 70
64
 10
0
 20
0
 30
0
  3
AIGNBL02020069
  0
LINE
  8
LAYER_2
 10
250.9736
 20
150.1632
 11
250.9736
 21
148.3632
  0
LINE
  8
LAYER_2
 10
250.9736
 20
148.3632
 11
252.1736
 21
148.3632
  0
LINE
  8
LAYER_2
 10
252.1736
 20
148.3632
 11
252.1736
 21
150.1632
  0
ENDBLK
  0
BLOCK
  8
LAYER_2
  2
AIGNBL0202006A
 70
64
 10
0
 20
0
 30
0
  3
AIGNBL0202006A
  0
LINE
  8
LAYER_2
 10
237.3736
 20
150.1632
 11
235.5736
 21
150.1632
  0
LINE
  8
LAYER_2
 10
235.5736
 20
150.1632
 11
235.5736
 21
151.3632
  0
LINE
  8
LAYER_2
 10
235.5736
 20
151.3632
 11
237.3736
 21
151.3632
  0
ENDBLK
  0
BLOCK
  8
LAYER_2
  2
AIGNBL0202006B
 70
64
 10
0
 20
0
 30
0
  3
AIGNBL0202006B
  0
LINE
  8
LAYER_2
 10
238.5736
 20
151.3632
 11
240.3736
 21
151.3632
  0
LINE
  8
LAYER_2
 10
240.3736
 20
151.3632
 11
240.3736
 21
150.1632
  0
LINE
  8
LAYER_2
 10
240.3736
 20
150.1632
 11
238.5736
 21
150.1632
  0
ENDBLK
  0
BLOCK
  8
LAYER_2
  2
AIGNBL0202006C
 70
64
 10
0
 20
0
 30
0
  3
AIGNBL0202006C
  0
LINE
  8
LAYER_2
 10
238.5736
 20
151.3632
 11
238.5736
 21
153.1632
  0
LINE
  8
LAYER_2
 10
238.5736
 20
153.1632
 11
237.3736
 21
153.1632
  0
LINE
  8
LAYER_2
 10
237.3736
 20
153.1632
 11
237.3736
 21
151.3632
  0
ENDBLK
  0
BLOCK
  8
LAYER_2
  2
AIGNBL0202006D
 70
64
 10
0
 20
0
 30
0
  3
AIGNBL0202006D
  0
LINE
  8
LAYER_2
 10
237.3736
 20
150.1632
 11
237.3736
 21
148.3632
  0
LINE
  8
LAYER_2
 10
237.3736
 20
148.3632
 11
238.5736
 21
148.3632
  0
LINE
  8
LAYER_2
 10
238.5736
 20
148.3632
 11
238.5736
 21
150.1632
  0
ENDBLK
  0
BLOCK
  8
LAYER_2
  2
AIGNBL0202006E
 70
64
 10
0
 20
0
 30
0
  3
AIGNBL0202006E
  0
LINE
  8
LAYER_2
 10
324.8243
 20
163.9632
 11
393.3243
 21
163.9632
  0
LINE
  8
LAYER_2
 10
393.3243
 20
163.9632
 11
393.3243
 21
43.9632
  0
LINE
  8
LAYER_2
 10
393.3243
 20
43.9632
 11
324.8243
 21
43.9632
  0
ARC
  8
LAYER_2
 10
324.8243
 20
45.4632
 40
1.5
 50
179.9989653
 51
270.0010347
  0
LINE
  8
LAYER_2
 10
323.3243
 20
45.4632
 11
323.3243
 21
162.4632
  0
ARC
  8
LAYER_2
 10
324.8243
 20
162.4632
 40
1.5
 50
89.9994106
 51
180.0005894
  0
ENDBLK
  0
BLOCK
  8
LAYER_2
  2
AIGNBL0202006F
 70
64
 10
0
 20
0
 30
0
  3
AIGNBL0202006F
  0
ARC
  8
LAYER_2
 10
393.3243
 20
161.9632
 40
2
 50
0.0007753067232
 51
89.99922468
  0
LINE
  8
LAYER_2
 10
395.3243
 20
161.9632
 11
395.3243
 21
137.9632
  0
LINE
  8
LAYER_2
 10
395.3243
 20
137.9632
 11
393.3243
 21
137.9632
  0
LINE
  8
LAYER_2
 10
393.3243
 20
137.9632
 11
393.3243
 21
163.9632
  0
ENDBLK
  0
BLOCK
  8
LAYER_2
  2
AIGNBL02020070
 70
64
 10
0
 20
0
 30
0
  3
AIGNBL02020070
  0
ARC
  8
LAYER_2
 10
393.3243
 20
45.9632
 40
2
 50
270.0004414
 51
359.9995586
  0
LINE
  8
LAYER_2
 10
395.3243
 20
45.9632
 11
395.3243
 21
69.9632
  0
LINE
  8
LAYER_2
 10
395.3243
 20
69.9632
 11
393.3243
 21
69.9632
  0
LINE
  8
LAYER_2
 10
393.3243
 20
69.9632
 11
393.3243
 21
43.9632
  0
ENDBLK
  0
BLOCK
  8
LAYER_2
  2
AIGNBL02020071
 70
64
 10
0
 20
0
 30
0
  3
AIGNBL02020071
  0
LINE
  8
LAYER_2
 10
283.3736
 20
11.0479
 11
285.5736
 21
11.0479
  0
LINE
  8
LAYER_2
 10
285.5736
 20
11.0479
 11
285.5736
 21
-58.9521
  0
LINE
  8
LAYER_2
 10
285.5736
 20
-58.9521
 11
283.3736
 21
-58.9521
  0
ENDBLK
  0
BLOCK
  8
LAYER_2
  2
AIGNBL02020072
 70
64
 10
0
 20
0
 30
0
  3
AIGNBL02020072
  0
LINE
  8
LAYER_2
 10
273.3736
 20
-58.9521
 11
229.7736
 21
-58.9521
  0
ENDBLK
  0
BLOCK
  8
LAYER_2
  2
AIGNBL02020073
 70
64
 10
0
 20
0
 30
0
  3
AIGNBL02020073
  0
LINE
  8
LAYER_2
 10
219.7736
 20
-58.9521
 11
217.5736
 21
-58.9521
  0
LINE
  8
LAYER_2
 10
217.5736
 20
-58.9521
 11
217.5736
 21
11.0479
  0
LINE
  8
LAYER_2
 10
217.5736
 20
11.0479
 11
219.7736
 21
11.0479
  0
ENDBLK
  0
BLOCK
  8
LAYER_2
  2
AIGNBL02020074
 70
64
 10
0
 20
0
 30
0
  3
AIGNBL02020074
  0
LINE
  8
LAYER_2
 10
217.5736
 20
11.0479
 11
219.7736
 21
11.0479
  0
LINE
  8
LAYER_2
 10
219.7736
 20
11.0479
 11
219.7736
 21
-58.9521
  0
LINE
  8
LAYER_2
 10
219.7736
 20
-58.9521
 11
217.5736
 21
-58.9521
  0
LINE
  8
LAYER_2
 10
217.5736
 20
-58.9521
 11
217.5736
 21
11.0479
  0
ENDBLK
  0
BLOCK
  8
LAYER_2
  2
AIGNBL02020075
 70
64
 10
0
 20
0
 30
0
  3
AIGNBL02020075
  0
LINE
  8
LAYER_2
 10
283.3736
 20
11.0479
 11
285.5736
 21
11.0479
  0
LINE
  8
LAYER_2
 10
285.5736
 20
11.0479
 11
285.5736
 21
-58.9521
  0
LINE
  8
LAYER_2
 10
285.5736
 20
-58.9521
 11
283.3736
 21
-58.9521
  0
LINE
  8
LAYER_2
 10
283.3736
 20
-58.9521
 11
283.3736
 21
11.0479
  0
ENDBLK
  0
BLOCK
  8
LAYER_2
  2
AIGNBL02020076
 70
64
 10
0
 20
0
 30
0
  3
AIGNBL02020076
  0
LINE
  8
LAYER_2
 10
229.7736
 20
-58.9521
 11
229.7736
 21
-60.9521
  0
LINE
  8
LAYER_2
 10
229.7736
 20
-60.9521
 11
219.7736
 21
-60.9521
  0
LINE
  8
LAYER_2
 10
219.7736
 20
-60.9521
 11
219.7736
 21
-58.9521
  0
ENDBLK
  0
BLOCK
  8
LAYER_2
  2
AIGNBL02020077
 70
64
 10
0
 20
0
 30
0
  3
AIGNBL02020077
  0
LINE
  8
LAYER_2
 10
283.3736
 20
-58.9521
 11
283.3736
 21
-60.9521
  0
LINE
  8
LAYER_2
 10
283.3736
 20
-60.9521
 11
273.3736
 21
-60.9521
  0
LINE
  8
LAYER_2
 10
273.3736
 20
-60.9521
 11
273.3736
 21
-58.9521
  0
ENDBLK
  0
BLOCK
  8
LAYER_2
  2
AIGNBL02020078
 70
64
 10
0
 20
0
 30
0
  3
AIGNBL02020078
  0
LINE
  8
LAYER_2
 10
229.7736
 20
-58.9521
 11
273.3736
 21
-58.9521
  0
ENDBLK
  0
BLOCK
  8
LAYER_2
  2
AIGNBL02020079
 70
64
 10
0
 20
0
 30
0
  3
AIGNBL02020079
  0
LINE
  8
LAYER_2
 10
283.3736
 20
-58.9521
 11
283.3736
 21
-36.6521
  0
LINE
  8
LAYER_2
 10
283.3736
 20
-36.6521
 11
219.7736
 21
-36.6521
  0
LINE
  8
LAYER_2
 10
219.7736
 20
-36.6521
 11
219.7736
 21
-58.9521
  0
ENDBLK
  0
BLOCK
  8
LAYER_2
  2
AIGNBL0202007A
 70
64
 10
0
 20
0
 30
0
  3
AIGNBL0202007A
  0
LINE
  8
LAYER_2
 10
259.9736
 20
-18.6521
 11
256.7736
 21
-18.6521
  0
ENDBLK
  0
BLOCK
  8
LAYER_2
  2
AIGNBL0202007B
 70
64
 10
0
 20
0
 30
0
  3
AIGNBL0202007B
  0
LINE
  8
LAYER_2
 10
246.3736
 20
-18.6521
 11
243.1736
 21
-18.6521
  0
ENDBLK
  0
BLOCK
  8
LAYER_2
  2
AIGNBL0202007C
 70
64
 10
0
 20
0
 30
0
  3
AIGNBL0202007C
  0
LINE
  8
LAYER_2
 10
232.7736
 20
-18.6521
 11
219.7736
 21
-18.6521
  0
LINE
  8
LAYER_2
 10
219.7736
 20
-18.6521
 11
219.7736
 21
-36.6521
  0
LINE
  8
LAYER_2
 10
219.7736
 20
-36.6521
 11
283.3736
 21
-36.6521
  0
LINE
  8
LAYER_2
 10
283.3736
 20
-36.6521
 11
283.3736
 21
-18.6521
  0
LINE
  8
LAYER_2
 10
283.3736
 20
-18.6521
 11
270.3736
 21
-18.6521
  0
ENDBLK
  0
BLOCK
  8
LAYER_2
  2
AIGNBL0202007D
 70
64
 10
0
 20
0
 30
0
  3
AIGNBL0202007D
  0
LINE
  8
LAYER_2
 10
243.1736
 20
-18.6521
 11
243.1736
 21
-29.6521
  0
LINE
  8
LAYER_2
 10
243.1736
 20
-29.6521
 11
232.7736
 21
-29.6521
  0
LINE
  8
LAYER_2
 10
232.7736
 20
-29.6521
 11
232.7736
 21
-18.6521
  0
ENDBLK
  0
BLOCK
  8
LAYER_2
  2
AIGNBL0202007E
 70
64
 10
0
 20
0
 30
0
  3
AIGNBL0202007E
  0
LINE
  8
LAYER_2
 10
256.7736
 20
-18.6521
 11
256.7736
 21
-29.6521
  0
LINE
  8
LAYER_2
 10
256.7736
 20
-29.6521
 11
246.3736
 21
-29.6521
  0
LINE
  8
LAYER_2
 10
246.3736
 20
-29.6521
 11
246.3736
 21
-18.6521
  0
ENDBLK
  0
BLOCK
  8
LAYER_2
  2
AIGNBL0202007F
 70
64
 10
0
 20
0
 30
0
  3
AIGNBL0202007F
  0
LINE
  8
LAYER_2
 10
270.3736
 20
-18.6521
 11
270.3736
 21
-29.6521
  0
LINE
  8
LAYER_2
 10
270.3736
 20
-29.6521
 11
259.9736
 21
-29.6521
  0
LINE
  8
LAYER_2
 10
259.9736
 20
-29.6521
 11
259.9736
 21
-18.6521
  0
ENDBLK
  0
BLOCK
  8
LAYER_2
  2
AIGNBL02020080
 70
64
 10
0
 20
0
 30
0
  3
AIGNBL02020080
  0
LINE
  8
LAYER_2
 10
232.7736
 20
-26.2521
 11
243.1736
 21
-26.2521
  0
ENDBLK
  0
BLOCK
  8
LAYER_2
  2
AIGNBL02020081
 70
64
 10
0
 20
0
 30
0
  3
AIGNBL02020081
  0
LINE
  8
LAYER_2
 10
246.3736
 20
-26.2521
 11
256.7736
 21
-26.2521
  0
ENDBLK
  0
BLOCK
  8
LAYER_2
  2
AIGNBL02020082
 70
64
 10
0
 20
0
 30
0
  3
AIGNBL02020082
  0
LINE
  8
LAYER_2
 10
259.9736
 20
-26.2521
 11
270.3736
 21
-26.2521
  0
ENDBLK
  0
BLOCK
  8
LAYER_2
  2
AIGNBL02020083
 70
64
 10
0
 20
0
 30
0
  3
AIGNBL02020083
  0
ARC
  8
LAYER_2
 10
233.7736
 20
-9.7521
 40
3.3
 50
89.9998987
 51
180.0001013
  0
ARC
  8
LAYER_2
 10
233.7736
 20
-9.7521
 40
3.3
 50
359.999706
 51
90.00029394
  0
ARC
  8
LAYER_2
 10
233.7736
 20
-9.7521
 40
3.3
 50
270.0001013
 51
359.9998987
  0
ARC
  8
LAYER_2
 10
233.7736
 20
-9.7521
 40
3.3
 50
180.000294
 51
269.999706
  0
ENDBLK
  0
BLOCK
  8
LAYER_2
  2
AIGNBL02020084
 70
64
 10
0
 20
0
 30
0
  3
AIGNBL02020084
  0
ARC
  8
LAYER_2
 10
269.3736
 20
-9.7521
 40
3.3
 50
89.99989878
 51
180.0001012
  0
ARC
  8
LAYER_2
 10
269.3736
 20
-9.7521
 40
3.3
 50
359.999706
 51
90.00029402
  0
ARC
  8
LAYER_2
 10
269.3736
 20
-9.7521
 40
3.3
 50
270.0001012
 51
359.9998988
  0
ARC
  8
LAYER_2
 10
269.3736
 20
-9.7521
 40
3.3
 50
180.0002941
 51
269.999706
  0
ENDBLK
  0
BLOCK
  8
LAYER_2
  2
AIGNBL02020085
 70
64
 10
0
 20
0
 30
0
  3
AIGNBL02020085
  0
LINE
  8
LAYER_2
 10
233.2736
 20
-9.2521
 11
233.2736
 21
-8.2521
  0
LINE
  8
LAYER_2
 10
233.2736
 20
-8.2521
 11
234.2736
 21
-8.2521
  0
LINE
  8
LAYER_2
 10
234.2736
 20
-8.2521
 11
234.2736
 21
-9.2521
  0
ENDBLK
  0
BLOCK
  8
LAYER_2
  2
AIGNBL02020086
 70
64
 10
0
 20
0
 30
0
  3
AIGNBL02020086
  0
LINE
  8
LAYER_2
 10
234.2736
 20
-10.2521
 11
234.2736
 21
-11.2521
  0
LINE
  8
LAYER_2
 10
234.2736
 20
-11.2521
 11
233.2736
 21
-11.2521
  0
LINE
  8
LAYER_2
 10
233.2736
 20
-11.2521
 11
233.2736
 21
-10.2521
  0
ENDBLK
  0
BLOCK
  8
LAYER_2
  2
AIGNBL02020087
 70
64
 10
0
 20
0
 30
0
  3
AIGNBL02020087
  0
LINE
  8
LAYER_2
 10
233.2736
 20
-9.2521
 11
232.2736
 21
-9.2521
  0
LINE
  8
LAYER_2
 10
232.2736
 20
-9.2521
 11
232.2736
 21
-10.2521
  0
LINE
  8
LAYER_2
 10
232.2736
 20
-10.2521
 11
233.2736
 21
-10.2521
  0
ENDBLK
  0
BLOCK
  8
LAYER_2
  2
AIGNBL02020088
 70
64
 10
0
 20
0
 30
0
  3
AIGNBL02020088
  0
LINE
  8
LAYER_2
 10
234.2736
 20
-10.2521
 11
235.2736
 21
-10.2521
  0
LINE
  8
LAYER_2
 10
235.2736
 20
-10.2521
 11
235.2736
 21
-9.2521
  0
LINE
  8
LAYER_2
 10
235.2736
 20
-9.2521
 11
234.2736
 21
-9.2521
  0
ENDBLK
  0
BLOCK
  8
LAYER_2
  2
AIGNBL02020089
 70
64
 10
0
 20
0
 30
0
  3
AIGNBL02020089
  0
LINE
  8
LAYER_2
 10
268.8736
 20
-9.2521
 11
268.8736
 21
-8.2521
  0
LINE
  8
LAYER_2
 10
268.8736
 20
-8.2521
 11
269.8736
 21
-8.2521
  0
LINE
  8
LAYER_2
 10
269.8736
 20
-8.2521
 11
269.8736
 21
-9.2521
  0
ENDBLK
  0
BLOCK
  8
LAYER_2
  2
AIGNBL0202008A
 70
64
 10
0
 20
0
 30
0
  3
AIGNBL0202008A
  0
LINE
  8
LAYER_2
 10
269.8736
 20
-10.2521
 11
269.8736
 21
-11.2521
  0
LINE
  8
LAYER_2
 10
269.8736
 20
-11.2521
 11
268.8736
 21
-11.2521
  0
LINE
  8
LAYER_2
 10
268.8736
 20
-11.2521
 11
268.8736
 21
-10.2521
  0
ENDBLK
  0
BLOCK
  8
LAYER_2
  2
AIGNBL0202008B
 70
64
 10
0
 20
0
 30
0
  3
AIGNBL0202008B
  0
LINE
  8
LAYER_2
 10
268.8736
 20
-9.2521
 11
267.8736
 21
-9.2521
  0
LINE
  8
LAYER_2
 10
267.8736
 20
-9.2521
 11
267.8736
 21
-10.2521
  0
LINE
  8
LAYER_2
 10
267.8736
 20
-10.2521
 11
268.8736
 21
-10.2521
  0
ENDBLK
  0
BLOCK
  8
LAYER_2
  2
AIGNBL0202008C
 70
64
 10
0
 20
0
 30
0
  3
AIGNBL0202008C
  0
LINE
  8
LAYER_2
 10
269.8736
 20
-10.2521
 11
270.8736
 21
-10.2521
  0
LINE
  8
LAYER_2
 10
270.8736
 20
-10.2521
 11
270.8736
 21
-9.2521
  0
LINE
  8
LAYER_2
 10
270.8736
 20
-9.2521
 11
269.8736
 21
-9.2521
  0
ENDBLK
  0
BLOCK
  8
LAYER_2
  2
AIGNBL0202008D
 70
64
 10
0
 20
0
 30
0
  3
AIGNBL0202008D
  0
LINE
  8
LAYER_2
 10
283.3736
 20
7.7479
 11
219.7736
 21
7.7479
  0
ENDBLK
  0
BLOCK
  8
LAYER_2
  2
AIGNBL0202008E
 70
64
 10
0
 20
0
 30
0
  3
AIGNBL0202008E
  0
LINE
  8
LAYER_2
 10
283.3736
 20
-18.6521
 11
273.3736
 21
-18.6521
  0
LINE
  8
LAYER_2
 10
273.3736
 20
-18.6521
 11
273.3736
 21
-17.6521
  0
LINE
  8
LAYER_2
 10
273.3736
 20
-17.6521
 11
283.3736
 21
-17.6521
  0
LINE
  8
LAYER_2
 10
283.3736
 20
-17.6521
 11
283.3736
 21
-18.6521
  0
ENDBLK
  0
BLOCK
  8
LAYER_2
  2
AIGNBL0202008F
 70
64
 10
0
 20
0
 30
0
  3
AIGNBL0202008F
  0
LINE
  8
LAYER_2
 10
274.3736
 20
-17.6521
 11
282.3736
 21
-17.6521
  0
LINE
  8
LAYER_2
 10
282.3736
 20
-17.6521
 11
282.3736
 21
-16.6521
  0
LINE
  8
LAYER_2
 10
282.3736
 20
-16.6521
 11
274.3736
 21
-16.6521
  0
LINE
  8
LAYER_2
 10
274.3736
 20
-16.6521
 11
274.3736
 21
-17.6521
  0
ENDBLK
  0
BLOCK
  8
LAYER_2
  2
AIGNBL02020090
 70
64
 10
0
 20
0
 30
0
  3
AIGNBL02020090
  0
LINE
  8
LAYER_2
 10
275.7736
 20
-16.6521
 11
280.9736
 21
-16.6521
  0
LINE
  8
LAYER_2
 10
280.9736
 20
-16.6521
 11
280.9736
 21
-15.6521
  0
LINE
  8
LAYER_2
 10
280.9736
 20
-15.6521
 11
275.7736
 21
-15.6521
  0
LINE
  8
LAYER_2
 10
275.7736
 20
-15.6521
 11
275.7736
 21
-16.6521
  0
ENDBLK
  0
BLOCK
  8
LAYER_2
  2
AIGNBL02020091
 70
64
 10
0
 20
0
 30
0
  3
AIGNBL02020091
  0
LINE
  8
LAYER_2
 10
276.2736
 20
-15.6521
 11
280.4736
 21
-15.6521
  0
ARC
  8
LAYER_2
 10
280.4736
 20
-15.1521
 40
0.5
 50
270.0006678
 51
359.9993323
  0
LINE
  8
LAYER_2
 10
280.9736
 20
-15.1521
 11
280.9736
 21
-14.6521
  0
ARC
  8
LAYER_2
 10
279.9736
 20
-14.6521
 40
1
 50
359.9990296
 51
90.00097037
  0
LINE
  8
LAYER_2
 10
279.9736
 20
-13.6521
 11
276.7736
 21
-13.6521
  0
ARC
  8
LAYER_2
 10
276.7736
 20
-14.6521
 40
1
 50
89.99966612
 51
180.0003339
  0
LINE
  8
LAYER_2
 10
275.7736
 20
-14.6521
 11
275.7736
 21
-15.1521
  0
ARC
  8
LAYER_2
 10
276.2736
 20
-15.1521
 40
0.5
 50
180.0019407
 51
269.9980594
  0
ENDBLK
  0
BLOCK
  8
LAYER_2
  2
AIGNBL02020092
 70
64
 10
0
 20
0
 30
0
  3
AIGNBL02020092
  0
ARC
  8
LAYER_2
 10
278.3736
 20
65.6632
 40
4
 50
90.00016311
 51
179.9998369
  0
ARC
  8
LAYER_2
 10
278.3736
 20
65.6632
 40
4
 50
3.991652582e-006
 51
89.999996
  0
ARC
  8
LAYER_2
 10
278.3736
 20
65.6632
 40
4
 50
269.9998369
 51
0.0001630973144
  0
ARC
  8
LAYER_2
 10
278.3736
 20
65.6632
 40
4
 50
179.999996
 51
270.000004
  0
ENDBLK
  0
BLOCK
  8
LAYER_2
  2
AIGNBL02020093
 70
64
 10
0
 20
0
 30
0
  3
AIGNBL02020093
  0
ARC
  8
LAYER_2
 10
224.7736
 20
65.6632
 40
4
 50
90.00016301
 51
179.999837
  0
ARC
  8
LAYER_2
 10
224.7736
 20
65.6632
 40
4
 50
4.08761725e-006
 51
89.9999959
  0
ARC
  8
LAYER_2
 10
224.7736
 20
65.6632
 40
4
 50
269.999837
 51
0.0001630013486
  0
ARC
  8
LAYER_2
 10
224.7736
 20
65.6632
 40
4
 50
179.9999959
 51
270.0000041
  0
ENDBLK
  0
BLOCK
  8
LAYER_2
  2
AIGNBL02020094
 70
64
 10
0
 20
0
 30
0
  3
AIGNBL02020094
  0
ARC
  8
LAYER_2
 10
224.7736
 20
142.2632
 40
4
 50
90.00016288
 51
179.9998371
  0
ARC
  8
LAYER_2
 10
224.7736
 20
142.2632
 40
4
 50
3.950450103e-006
 51
89.99999604
  0
ARC
  8
LAYER_2
 10
224.7736
 20
142.2632
 40
4
 50
269.9998371
 51
0.0001628641812
  0
ARC
  8
LAYER_2
 10
224.7736
 20
142.2632
 40
4
 50
179.999996
 51
270.000004
  0
ENDBLK
  0
BLOCK
  8
LAYER_2
  2
AIGNBL02020095
 70
64
 10
0
 20
0
 30
0
  3
AIGNBL02020095
  0
ARC
  8
LAYER_2
 10
278.3736
 20
142.2632
 40
4
 50
90.00016297
 51
179.999837
  0
ARC
  8
LAYER_2
 10
278.3736
 20
142.2632
 40
4
 50
3.854485147e-006
 51
89.99999613
  0
ARC
  8
LAYER_2
 10
278.3736
 20
142.2632
 40
4
 50
269.9998371
 51
0.000162960147
  0
ARC
  8
LAYER_2
 10
278.3736
 20
142.2632
 40
4
 50
179.9999961
 51
270.0000039
  0
ENDBLK
  0
BLOCK
  8
LAYER_2
  2
AIGNBL02020096
 70
64
 10
0
 20
0
 30
0
  3
AIGNBL02020096
  0
LINE
  8
LAYER_2
 10
229.7736
 20
-18.6521
 11
219.7736
 21
-18.6521
  0
LINE
  8
LAYER_2
 10
219.7736
 20
-18.6521
 11
219.7736
 21
-17.6521
  0
LINE
  8
LAYER_2
 10
219.7736
 20
-17.6521
 11
229.7736
 21
-17.6521
  0
LINE
  8
LAYER_2
 10
229.7736
 20
-17.6521
 11
229.7736
 21
-18.6521
  0
ENDBLK
  0
BLOCK
  8
LAYER_2
  2
AIGNBL02020097
 70
64
 10
0
 20
0
 30
0
  3
AIGNBL02020097
  0
LINE
  8
LAYER_2
 10
220.7736
 20
-17.6521
 11
228.7736
 21
-17.6521
  0
LINE
  8
LAYER_2
 10
228.7736
 20
-17.6521
 11
228.7736
 21
-16.6521
  0
LINE
  8
LAYER_2
 10
228.7736
 20
-16.6521
 11
220.7736
 21
-16.6521
  0
LINE
  8
LAYER_2
 10
220.7736
 20
-16.6521
 11
220.7736
 21
-17.6521
  0
ENDBLK
  0
BLOCK
  8
LAYER_2
  2
AIGNBL02020098
 70
64
 10
0
 20
0
 30
0
  3
AIGNBL02020098
  0
LINE
  8
LAYER_2
 10
222.1736
 20
-16.6521
 11
227.3736
 21
-16.6521
  0
LINE
  8
LAYER_2
 10
227.3736
 20
-16.6521
 11
227.3736
 21
-15.6521
  0
LINE
  8
LAYER_2
 10
227.3736
 20
-15.6521
 11
222.1736
 21
-15.6521
  0
LINE
  8
LAYER_2
 10
222.1736
 20
-15.6521
 11
222.1736
 21
-16.6521
  0
ENDBLK
  0
BLOCK
  8
LAYER_2
  2
AIGNBL02020099
 70
64
 10
0
 20
0
 30
0
  3
AIGNBL02020099
  0
LINE
  8
LAYER_2
 10
222.6736
 20
-15.6521
 11
226.8736
 21
-15.6521
  0
ARC
  8
LAYER_2
 10
226.8736
 20
-15.1521
 40
0.5
 50
270.0006685
 51
359.9993315
  0
LINE
  8
LAYER_2
 10
227.3736
 20
-15.1521
 11
227.3736
 21
-14.6521
  0
ARC
  8
LAYER_2
 10
226.3736
 20
-14.6521
 40
1
 50
359.99903
 51
90.00096999
  0
LINE
  8
LAYER_2
 10
226.3736
 20
-13.6521
 11
223.1736
 21
-13.6521
  0
ARC
  8
LAYER_2
 10
223.1736
 20
-14.6521
 40
1
 50
89.99966574
 51
180.0003343
  0
LINE
  8
LAYER_2
 10
222.1736
 20
-14.6521
 11
222.1736
 21
-15.1521
  0
ARC
  8
LAYER_2
 10
222.6736
 20
-15.1521
 40
0.5
 50
180.0019399
 51
269.9980601
  0
ENDBLK
  0
BLOCK
  8
LAYER_2
  2
AIGNBL0202009A
 70
64
 10
0
 20
0
 30
0
  3
AIGNBL0202009A
  0
LINE
  8
LAYER_2
 10
261.1736
 20
-26.2521
 11
269.1736
 21
-26.2521
  0
LINE
  8
LAYER_2
 10
269.1736
 20
-26.2521
 11
269.1736
 21
-25.2521
  0
LINE
  8
LAYER_2
 10
269.1736
 20
-25.2521
 11
261.1736
 21
-25.2521
  0
LINE
  8
LAYER_2
 10
261.1736
 20
-25.2521
 11
261.1736
 21
-26.2521
  0
ENDBLK
  0
BLOCK
  8
LAYER_2
  2
AIGNBL0202009B
 70
64
 10
0
 20
0
 30
0
  3
AIGNBL0202009B
  0
LINE
  8
LAYER_2
 10
262.1736
 20
-25.2521
 11
268.1736
 21
-25.2521
  0
LINE
  8
LAYER_2
 10
268.1736
 20
-25.2521
 11
268.1736
 21
-24.2521
  0
LINE
  8
LAYER_2
 10
268.1736
 20
-24.2521
 11
262.1736
 21
-24.2521
  0
LINE
  8
LAYER_2
 10
262.1736
 20
-24.2521
 11
262.1736
 21
-25.2521
  0
ENDBLK
  0
BLOCK
  8
LAYER_2
  2
AIGNBL0202009C
 70
64
 10
0
 20
0
 30
0
  3
AIGNBL0202009C
  0
LINE
  8
LAYER_2
 10
261.6736
 20
-24.2521
 11
268.6736
 21
-24.2521
  0
ARC
  8
LAYER_2
 10
268.6736
 20
-23.7521
 40
0.5
 50
270.0006678
 51
359.9993322
  0
LINE
  8
LAYER_2
 10
269.1736
 20
-23.7521
 11
269.1736
 21
-23.2521
  0
ARC
  8
LAYER_2
 10
267.1736
 20
-23.2521
 40
2
 50
359.9995149
 51
90.0004851
  0
LINE
  8
LAYER_2
 10
267.1736
 20
-21.2521
 11
263.1736
 21
-21.2521
  0
ARC
  8
LAYER_2
 10
263.1736
 20
-23.2521
 40
2
 50
89.99983303
 51
180.000167
  0
LINE
  8
LAYER_2
 10
261.1736
 20
-23.2521
 11
261.1736
 21
-23.7521
  0
ARC
  8
LAYER_2
 10
261.6736
 20
-23.7521
 40
0.5
 50
180.0019404
 51
269.9980597
  0
ENDBLK
  0
BLOCK
  8
LAYER_2
  2
AIGNBL0202009D
 70
64
 10
0
 20
0
 30
0
  3
AIGNBL0202009D
  0
LINE
  8
LAYER_2
 10
247.5736
 20
-26.2521
 11
255.5736
 21
-26.2521
  0
LINE
  8
LAYER_2
 10
255.5736
 20
-26.2521
 11
255.5736
 21
-25.2521
  0
LINE
  8
LAYER_2
 10
255.5736
 20
-25.2521
 11
247.5736
 21
-25.2521
  0
LINE
  8
LAYER_2
 10
247.5736
 20
-25.2521
 11
247.5736
 21
-26.2521
  0
ENDBLK
  0
BLOCK
  8
LAYER_2
  2
AIGNBL0202009E
 70
64
 10
0
 20
0
 30
0
  3
AIGNBL0202009E
  0
LINE
  8
LAYER_2
 10
233.9736
 20
-26.2521
 11
241.9736
 21
-26.2521
  0
LINE
  8
LAYER_2
 10
241.9736
 20
-26.2521
 11
241.9736
 21
-25.2521
  0
LINE
  8
LAYER_2
 10
241.9736
 20
-25.2521
 11
233.9736
 21
-25.2521
  0
LINE
  8
LAYER_2
 10
233.9736
 20
-25.2521
 11
233.9736
 21
-26.2521
  0
ENDBLK
  0
BLOCK
  8
LAYER_2
  2
AIGNBL0202009F
 70
64
 10
0
 20
0
 30
0
  3
AIGNBL0202009F
  0
ARC
  8
LAYER_2
 10
245.7736
 20
103.9632
 40
2
 50
90.00032596
 51
179.999674
  0
ARC
  8
LAYER_2
 10
245.7736
 20
103.9632
 40
2
 50
7.952059286e-006
 51
89.99999204
  0
ARC
  8
LAYER_2
 10
245.7736
 20
103.9632
 40
2
 50
269.9996741
 51
0.0003259533916
  0
ARC
  8
LAYER_2
 10
245.7736
 20
103.9632
 40
2
 50
179.999992
 51
270.000008
  0
ENDBLK
  0
BLOCK
  8
LAYER_2
  2
AIGNBL020200A0
 70
64
 10
0
 20
0
 30
0
  3
AIGNBL020200A0
  0
ARC
  8
LAYER_2
 10
255.7736
 20
103.9632
 40
2
 50
90.000326
 51
179.999674
  0
ARC
  8
LAYER_2
 10
255.7736
 20
103.9632
 40
2
 50
7.916226178e-006
 51
89.99999207
  0
ARC
  8
LAYER_2
 10
255.7736
 20
103.9632
 40
2
 50
269.999674
 51
0.0003259892252
  0
ARC
  8
LAYER_2
 10
255.7736
 20
103.9632
 40
2
 50
179.9999921
 51
270.0000079
  0
ENDBLK
  0
BLOCK
  8
LAYER_2
  2
AIGNBL020200A1
 70
64
 10
0
 20
0
 30
0
  3
AIGNBL020200A1
  0
ARC
  8
LAYER_2
 10
245.7736
 20
7.7479
 40
2
 50
359.9995149
 51
90.00048513
  0
ARC
  8
LAYER_2
 10
245.7736
 20
7.7479
 40
2
 50
89.99983286
 51
180.0001672
  0
ENDBLK
  0
BLOCK
  8
LAYER_2
  2
AIGNBL020200A2
 70
64
 10
0
 20
0
 30
0
  3
AIGNBL020200A2
  0
ARC
  8
LAYER_2
 10
255.7736
 20
7.7479
 40
2
 50
359.9995148
 51
90.00048517
  0
ARC
  8
LAYER_2
 10
255.7736
 20
7.7479
 40
2
 50
89.99983289
 51
180.0001671
  0
ENDBLK
  0
BLOCK
  8
LAYER_2
  2
AIGNBL020200A3
 70
64
 10
0
 20
0
 30
0
  3
AIGNBL020200A3
  0
LINE
  8
LAYER_2
 10
248.5736
 20
-25.2521
 11
254.5736
 21
-25.2521
  0
LINE
  8
LAYER_2
 10
254.5736
 20
-25.2521
 11
254.5736
 21
-24.2521
  0
LINE
  8
LAYER_2
 10
254.5736
 20
-24.2521
 11
248.5736
 21
-24.2521
  0
LINE
  8
LAYER_2
 10
248.5736
 20
-24.2521
 11
248.5736
 21
-25.2521
  0
ENDBLK
  0
BLOCK
  8
LAYER_2
  2
AIGNBL020200A4
 70
64
 10
0
 20
0
 30
0
  3
AIGNBL020200A4
  0
LINE
  8
LAYER_2
 10
248.0736
 20
-24.2521
 11
255.0736
 21
-24.2521
  0
ARC
  8
LAYER_2
 10
255.0736
 20
-23.7521
 40
0.5
 50
270.000668
 51
359.999332
  0
LINE
  8
LAYER_2
 10
255.5736
 20
-23.7521
 11
255.5736
 21
-23.2521
  0
ARC
  8
LAYER_2
 10
253.5736
 20
-23.2521
 40
2
 50
359.9995149
 51
90.00048505
  0
LINE
  8
LAYER_2
 10
253.5736
 20
-21.2521
 11
249.5736
 21
-21.2521
  0
ARC
  8
LAYER_2
 10
249.5736
 20
-23.2521
 40
2
 50
89.99983298
 51
180.000167
  0
LINE
  8
LAYER_2
 10
247.5736
 20
-23.2521
 11
247.5736
 21
-23.7521
  0
ARC
  8
LAYER_2
 10
248.0736
 20
-23.7521
 40
0.5
 50
180.0019402
 51
269.9980599
  0
ENDBLK
  0
BLOCK
  8
LAYER_2
  2
AIGNBL020200A5
 70
64
 10
0
 20
0
 30
0
  3
AIGNBL020200A5
  0
LINE
  8
LAYER_2
 10
234.9736
 20
-25.2521
 11
240.9736
 21
-25.2521
  0
LINE
  8
LAYER_2
 10
240.9736
 20
-25.2521
 11
240.9736
 21
-24.2521
  0
LINE
  8
LAYER_2
 10
240.9736
 20
-24.2521
 11
234.9736
 21
-24.2521
  0
LINE
  8
LAYER_2
 10
234.9736
 20
-24.2521
 11
234.9736
 21
-25.2521
  0
ENDBLK
  0
BLOCK
  8
LAYER_2
  2
AIGNBL020200A6
 70
64
 10
0
 20
0
 30
0
  3
AIGNBL020200A6
  0
LINE
  8
LAYER_2
 10
234.4736
 20
-24.2521
 11
241.4736
 21
-24.2521
  0
ARC
  8
LAYER_2
 10
241.4736
 20
-23.7521
 40
0.5
 50
270.0006682
 51
359.9993318
  0
LINE
  8
LAYER_2
 10
241.9736
 20
-23.7521
 11
241.9736
 21
-23.2521
  0
ARC
  8
LAYER_2
 10
239.9736
 20
-23.2521
 40
2
 50
359.999515
 51
90.000485
  0
LINE
  8
LAYER_2
 10
239.9736
 20
-21.2521
 11
235.9736
 21
-21.2521
  0
ARC
  8
LAYER_2
 10
235.9736
 20
-23.2521
 40
2
 50
89.99983293
 51
180.0001671
  0
LINE
  8
LAYER_2
 10
233.9736
 20
-23.2521
 11
233.9736
 21
-23.7521
  0
ARC
  8
LAYER_2
 10
234.4736
 20
-23.7521
 40
0.5
 50
180.00194
 51
269.9980601
  0
ENDBLK
  0
BLOCK
  8
LAYER_2
  2
AIGNBL020200A7
 70
64
 10
0
 20
0
 30
0
  3
AIGNBL020200A7
  0
LINE
  8
LAYER_2
 10
250.9736
 20
57.7632
 11
249.1736
 21
57.7632
  0
LINE
  8
LAYER_2
 10
249.1736
 20
57.7632
 11
249.1736
 21
56.5632
  0
LINE
  8
LAYER_2
 10
249.1736
 20
56.5632
 11
250.9736
 21
56.5632
  0
ENDBLK
  0
BLOCK
  8
LAYER_2
  2
AIGNBL020200A8
 70
64
 10
0
 20
0
 30
0
  3
AIGNBL020200A8
  0
LINE
  8
LAYER_2
 10
252.1736
 20
56.5632
 11
253.9736
 21
56.5632
  0
LINE
  8
LAYER_2
 10
253.9736
 20
56.5632
 11
253.9736
 21
57.7632
  0
LINE
  8
LAYER_2
 10
253.9736
 20
57.7632
 11
252.1736
 21
57.7632
  0
ENDBLK
  0
BLOCK
  8
LAYER_2
  2
AIGNBL020200A9
 70
64
 10
0
 20
0
 30
0
  3
AIGNBL020200A9
  0
LINE
  8
LAYER_2
 10
252.1736
 20
56.5632
 11
252.1736
 21
54.7632
  0
LINE
  8
LAYER_2
 10
252.1736
 20
54.7632
 11
250.9736
 21
54.7632
  0
LINE
  8
LAYER_2
 10
250.9736
 20
54.7632
 11
250.9736
 21
56.5632
  0
ENDBLK
  0
BLOCK
  8
LAYER_2
  2
AIGNBL020200AA
 70
64
 10
0
 20
0
 30
0
  3
AIGNBL020200AA
  0
LINE
  8
LAYER_2
 10
250.9736
 20
57.7632
 11
250.9736
 21
59.5632
  0
LINE
  8
LAYER_2
 10
250.9736
 20
59.5632
 11
252.1736
 21
59.5632
  0
LINE
  8
LAYER_2
 10
252.1736
 20
59.5632
 11
252.1736
 21
57.7632
  0
ENDBLK
  0
BLOCK
  8
LAYER_2
  2
AIGNBL020200AB
 70
64
 10
0
 20
0
 30
0
  3
AIGNBL020200AB
  0
LINE
  8
LAYER_2
 10
237.3736
 20
57.7632
 11
235.5736
 21
57.7632
  0
LINE
  8
LAYER_2
 10
235.5736
 20
57.7632
 11
235.5736
 21
56.5632
  0
LINE
  8
LAYER_2
 10
235.5736
 20
56.5632
 11
237.3736
 21
56.5632
  0
ENDBLK
  0
BLOCK
  8
LAYER_2
  2
AIGNBL020200AC
 70
64
 10
0
 20
0
 30
0
  3
AIGNBL020200AC
  0
LINE
  8
LAYER_2
 10
238.5736
 20
56.5632
 11
240.3736
 21
56.5632
  0
LINE
  8
LAYER_2
 10
240.3736
 20
56.5632
 11
240.3736
 21
57.7632
  0
LINE
  8
LAYER_2
 10
240.3736
 20
57.7632
 11
238.5736
 21
57.7632
  0
ENDBLK
  0
BLOCK
  8
LAYER_2
  2
AIGNBL020200AD
 70
64
 10
0
 20
0
 30
0
  3
AIGNBL020200AD
  0
LINE
  8
LAYER_2
 10
238.5736
 20
56.5632
 11
238.5736
 21
54.7632
  0
LINE
  8
LAYER_2
 10
238.5736
 20
54.7632
 11
237.3736
 21
54.7632
  0
LINE
  8
LAYER_2
 10
237.3736
 20
54.7632
 11
237.3736
 21
56.5632
  0
ENDBLK
  0
BLOCK
  8
LAYER_2
  2
AIGNBL020200AE
 70
64
 10
0
 20
0
 30
0
  3
AIGNBL020200AE
  0
LINE
  8
LAYER_2
 10
237.3736
 20
57.7632
 11
237.3736
 21
59.5632
  0
LINE
  8
LAYER_2
 10
237.3736
 20
59.5632
 11
238.5736
 21
59.5632
  0
LINE
  8
LAYER_2
 10
238.5736
 20
59.5632
 11
238.5736
 21
57.7632
  0
ENDBLK
  0
BLOCK
  8
LAYER_2
  2
AIGNBL020200AF
 70
64
 10
0
 20
0
 30
0
  3
AIGNBL020200AF
  0
LINE
  8
LAYER_2
 62
3
 10
216.9486
 20
163.9632
 11
186.9711
 21
163.9632
  0
ENDBLK
  0
BLOCK
  8
LAYER_2
  2
AIGNBL020200B0
 70
64
 10
0
 20
0
 30
0
  3
AIGNBL020200B0
  0
LINE
  8
LAYER_2
 62
3
 10
216.9486
 20
43.9632
 11
186.9711
 21
43.9632
  0
ENDBLK
  0
BLOCK
  8
LAYER_2
  2
AIGNBL020200B1
 70
64
 10
0
 20
0
 30
0
  3
AIGNBL020200B1
  0
LINE
  8
LAYER_2
 62
3
 10
188.2211
 20
161.4632
 11
188.2211
 21
46.4632
  0
ENDBLK
  0
BLOCK
  8
LAYER_2
  2
AIGNBL020200B2
 70
64
 10
0
 20
0
 30
0
  3
AIGNBL020200B2
  0
LINE
  8
LAYER_2
 62
3
 10
187.8044
 20
161.4632
 11
188.2211
 21
163.9632
  0
LINE
  8
LAYER_2
 62
3
 10
188.2211
 20
163.9632
 11
188.6377
 21
161.4632
  0
LINE
  8
LAYER_2
 62
3
 10
188.6377
 20
161.4632
 11
187.8044
 21
161.4632
  0
ENDBLK
  0
BLOCK
  8
LAYER_2
  2
AIGNBL020200B3
 70
64
 10
0
 20
0
 30
0
  3
AIGNBL020200B3
  0
LINE
  8
LAYER_2
 62
3
 10
187.8044
 20
46.4632
 11
188.2211
 21
43.9632
  0
LINE
  8
LAYER_2
 62
3
 10
188.2211
 20
43.9632
 11
188.6377
 21
46.4632
  0
LINE
  8
LAYER_2
 62
3
 10
188.6377
 20
46.4632
 11
187.8044
 21
46.4632
  0
ENDBLK
  0
BLOCK
  8
LAYER_2
  2
AIGNBL020200B4
 70
64
 10
0
 20
0
 30
0
  3
AIGNBL020200B4
  0
TEXT
  8
LAYER_2
 10
187.5534
 20
100.9468
 11
187.5534
 21
100.9468
 40
3.7421
 41
0.5
 50
89.99999999
 62
3
  1
120
  0
ENDBLK
  0
BLOCK
  8
LAYER_2
  2
AIGNBL020200B5
 70
64
 10
0
 20
0
 30
0
  3
AIGNBL020200B5
  0
LINE
  8
LAYER_2
 62
3
 10
217.5736
 20
43.3382
 11
217.5736
 21
25.7332
  0
ENDBLK
  0
BLOCK
  8
LAYER_2
  2
AIGNBL020200B6
 70
64
 10
0
 20
0
 30
0
  3
AIGNBL020200B6
  0
LINE
  8
LAYER_2
 62
3
 10
285.5736
 20
43.3382
 11
285.5736
 21
25.7332
  0
ENDBLK
  0
BLOCK
  8
LAYER_2
  2
AIGNBL020200B7
 70
64
 10
0
 20
0
 30
0
  3
AIGNBL020200B7
  0
LINE
  8
LAYER_2
 62
3
 10
220.0736
 20
26.9832
 11
283.0736
 21
26.9832
  0
ENDBLK
  0
BLOCK
  8
LAYER_2
  2
AIGNBL020200B8
 70
64
 10
0
 20
0
 30
0
  3
AIGNBL020200B8
  0
LINE
  8
LAYER_2
 62
3
 10
220.0736
 20
27.3999
 11
217.5736
 21
26.9832
  0
LINE
  8
LAYER_2
 62
3
 10
217.5736
 20
26.9832
 11
220.0736
 21
26.5665
  0
LINE
  8
LAYER_2
 62
3
 10
220.0736
 20
26.5665
 11
220.0736
 21
27.3999
  0
ENDBLK
  0
BLOCK
  8
LAYER_2
  2
AIGNBL020200B9
 70
64
 10
0
 20
0
 30
0
  3
AIGNBL020200B9
  0
LINE
  8
LAYER_2
 62
3
 10
283.0736
 20
27.3999
 11
285.5736
 21
26.9832
  0
LINE
  8
LAYER_2
 62
3
 10
285.5736
 20
26.9832
 11
283.0736
 21
26.5665
  0
LINE
  8
LAYER_2
 62
3
 10
283.0736
 20
26.5665
 11
283.0736
 21
27.3999
  0
ENDBLK
  0
BLOCK
  8
LAYER_2
  2
AIGNBL020200BA
 70
64
 10
0
 20
0
 30
0
  3
AIGNBL020200BA
  0
TEXT
  8
LAYER_2
 10
249.6449
 20
27.6509
 11
249.6449
 21
27.6509
 40
3.7421
 41
0.5
 62
3
  1
68
  0
ENDBLK
  0
BLOCK
  8
LAYER_2
  2
AIGNBL020200BB
 70
64
 10
0
 20
0
 30
0
  3
AIGNBL020200BB
  0
LINE
  8
LAYER_2
 62
3
 10
216.9486
 20
11.0479
 11
186.9711
 21
11.0479
  0
ENDBLK
  0
BLOCK
  8
LAYER_2
  2
AIGNBL020200BC
 70
64
 10
0
 20
0
 30
0
  3
AIGNBL020200BC
  0
LINE
  8
LAYER_2
 62
3
 10
216.9486
 20
-60.9521
 11
186.9711
 21
-60.9521
  0
ENDBLK
  0
BLOCK
  8
LAYER_2
  2
AIGNBL020200BD
 70
64
 10
0
 20
0
 30
0
  3
AIGNBL020200BD
  0
LINE
  8
LAYER_2
 62
3
 10
188.2211
 20
8.5479
 11
188.2211
 21
-58.4521
  0
ENDBLK
  0
BLOCK
  8
LAYER_2
  2
AIGNBL020200BE
 70
64
 10
0
 20
0
 30
0
  3
AIGNBL020200BE
  0
LINE
  8
LAYER_2
 62
3
 10
187.8044
 20
8.5479
 11
188.2211
 21
11.0479
  0
LINE
  8
LAYER_2
 62
3
 10
188.2211
 20
11.0479
 11
188.6377
 21
8.5479
  0
LINE
  8
LAYER_2
 62
3
 10
188.6377
 20
8.5479
 11
187.8044
 21
8.5479
  0
ENDBLK
  0
BLOCK
  8
LAYER_2
  2
AIGNBL020200BF
 70
64
 10
0
 20
0
 30
0
  3
AIGNBL020200BF
  0
LINE
  8
LAYER_2
 62
3
 10
187.8044
 20
-58.4521
 11
188.2211
 21
-60.9521
  0
LINE
  8
LAYER_2
 62
3
 10
188.2211
 20
-60.9521
 11
188.6377
 21
-58.4521
  0
LINE
  8
LAYER_2
 62
3
 10
188.6377
 20
-58.4521
 11
187.8044
 21
-58.4521
  0
ENDBLK
  0
BLOCK
  8
LAYER_2
  2
AIGNBL020200C0
 70
64
 10
0
 20
0
 30
0
  3
AIGNBL020200C0
  0
TEXT
  8
LAYER_2
 10
187.5959
 20
-26.8821
 11
187.5959
 21
-26.8821
 40
3.7421
 41
0.5
 50
89.99999999
 62
3
  1
72
  0
ENDBLK
  0
BLOCK
  8
LAYER_2
  2
AIGNBL020200C1
 70
64
 10
0
 20
0
 30
0
  3
AIGNBL020200C1
  0
ENDBLK
  0
BLOCK
  8
LAYER_2
  2
AIGNBL020200C2
 70
64
 10
0
 20
0
 30
0
  3
AIGNBL020200C2
  0
ENDBLK
  0
BLOCK
  8
LAYER_2
  2
AIGNBL020200C3
 70
64
 10
0
 20
0
 30
0
  3
AIGNBL020200C3
  0
ENDBLK
  0
BLOCK
  8
LAYER_2
  2
AIGNBL020200C4
 70
64
 10
0
 20
0
 30
0
  3
AIGNBL020200C4
  0
ENDBLK
  0
BLOCK
  8
LAYER_2
  2
AIGNBL020200C5
 70
64
 10
0
 20
0
 30
0
  3
AIGNBL020200C5
  0
ENDBLK
  0
BLOCK
  8
LAYER_2
  2
AIGNBL020200C6
 70
64
 10
0
 20
0
 30
0
  3
AIGNBL020200C6
  0
ENDBLK
  0
BLOCK
  8
LAYER_2
  2
AIGNBL020200C7
 70
64
 10
0
 20
0
 30
0
  3
AIGNBL020200C7
  0
ENDBLK
  0
BLOCK
  8
LAYER_2
  2
AIGNBL020200C8
 70
64
 10
0
 20
0
 30
0
  3
AIGNBL020200C8
  0
ENDBLK
  0
BLOCK
  8
LAYER_2
  2
AIGNBL020200C9
 70
64
 10
0
 20
0
 30
0
  3
AIGNBL020200C9
  0
ENDBLK
  0
BLOCK
  8
LAYER_1
  2
AIGNBL01010002
 70
64
 10
0
 20
0
 30
0
  3
AIGNBL01010002
  0
LINE
  8
LAYER_1
 10
339.2705
 20
-16.6211
 11
469.2192
 21
-16.6211
  0
LINE
  8
LAYER_1
 10
339.2705
 20
-26.6172
 11
469.2192
 21
-26.6172
  0
LINE
  8
LAYER_1
 10
339.2705
 20
-66.6014
 11
339.2705
 21
-16.6211
  0
LINE
  8
LAYER_1
 10
359.2626
 20
-66.6014
 11
359.2626
 21
-26.6172
  0
LINE
  8
LAYER_1
 10
424.2369
 20
-66.6014
 11
424.2369
 21
-26.6172
  0
LINE
  8
LAYER_1
 10
404.2448
 20
-66.6014
 11
404.2448
 21
-26.6172
  0
LINE
  8
LAYER_1
 10
339.2705
 20
-36.6132
 11
469.2192
 21
-36.6132
  0
LINE
  8
LAYER_1
 10
339.2705
 20
-46.6093
 11
469.2192
 21
-46.6093
  0
LINE
  8
LAYER_1
 10
339.2705
 20
-56.6053
 11
469.2192
 21
-56.6053
  0
LINE
  8
LAYER_1
 10
469.2192
 20
-66.6014
 11
124.874
 21
-66.6014
  0
LINE
  8
LAYER_1
 10
124.874
 20
-66.6014
 11
124.874
 21
169.592
  0
LINE
  8
LAYER_1
 10
124.874
 20
169.592
 11
469.2192
 21
169.592
  0
LINE
  8
LAYER_1
 10
469.2192
 20
169.592
 11
469.2192
 21
-66.6014
  0
ENDBLK
  0
BLOCK
  8
LAYER_1
  2
AIGNBL01010003
 70
64
 10
0
 20
0
 30
0
  3
AIGNBL01010003
  0
INSERT
  8
LAYER_1
  2
AIGNBL01020004
 10
0
 20
0
 30
0
  0
INSERT
  8
LAYER_1
  2
AIGNBL01020005
 10
0
 20
0
 30
0
  0
LINE
  8
LAYER_1
 10
364.1876
 20
-18.593
 11
364.1876
 21
-19.3256
  0
LINE
  8
LAYER_1
 10
364.1876
 20
-19.3256
 11
366.139
 21
-19.3256
  0
LINE
  8
LAYER_1
 10
366.139
 20
-19.3256
 11
366.139
 21
-19.6099
  0
LINE
  8
LAYER_1
 10
366.139
 20
-19.6099
 11
363.7058
 21
-19.6099
  0
LINE
  8
LAYER_1
 10
363.7058
 20
-19.6099
 11
363.7058
 21
-21.1532
  0
LINE
  8
LAYER_1
 10
363.7058
 20
-21.1532
 11
364.5329
 21
-21.1532
  0
LINE
  8
LAYER_1
 10
364.5329
 20
-21.1532
 11
364.5329
 21
-20.3293
  0
LINE
  8
LAYER_1
 10
364.5329
 20
-20.3293
 11
366.1352
 21
-20.3293
  0
LINE
  8
LAYER_1
 10
366.1352
 20
-20.3293
 11
366.1352
 21
-21.951
  0
LINE
  8
LAYER_1
 10
366.1352
 20
-21.951
 11
367.0526
 21
-21.951
  0
LINE
  8
LAYER_1
 10
367.0526
 20
-21.951
 11
367.0526
 21
-20.3293
  0
LINE
  8
LAYER_1
 10
367.0526
 20
-20.3293
 11
368.6679
 21
-20.3293
  0
LINE
  8
LAYER_1
 10
368.6679
 20
-20.3293
 11
368.6679
 21
-21.1532
  0
LINE
  8
LAYER_1
 10
368.6679
 20
-21.1532
 11
369.5334
 21
-21.1532
  0
LINE
  8
LAYER_1
 10
369.5334
 20
-21.1532
 11
369.5334
 21
-19.6099
  0
LINE
  8
LAYER_1
 10
369.5334
 20
-19.6099
 11
367.0563
 21
-19.6099
  0
LINE
  8
LAYER_1
 10
367.0563
 20
-19.6099
 11
367.0563
 21
-19.3256
  0
LINE
  8
LAYER_1
 10
367.0563
 20
-19.3256
 11
369.0139
 21
-19.3256
  0
LINE
  8
LAYER_1
 10
369.0139
 20
-19.3256
 11
369.0139
 21
-18.593
  0
LINE
  8
LAYER_1
 10
369.0139
 20
-18.593
 11
364.1876
 21
-18.593
  0
LINE
  8
LAYER_1
 10
364.6846
 20
-21.0494
 11
365.8643
 21
-21.0494
  0
LINE
  8
LAYER_1
 10
365.8643
 20
-21.0494
 11
365.8643
 21
-20.5839
  0
LINE
  8
LAYER_1
 10
365.8643
 20
-20.5839
 11
364.6846
 21
-20.5839
  0
LINE
  8
LAYER_1
 10
364.6846
 20
-20.5839
 11
364.6846
 21
-21.0494
  0
LINE
  8
LAYER_1
 10
364.5424
 20
-21.7545
 11
365.8643
 21
-21.7545
  0
LINE
  8
LAYER_1
 10
365.8643
 20
-21.7545
 11
365.8643
 21
-21.2892
  0
LINE
  8
LAYER_1
 10
365.8643
 20
-21.2892
 11
364.5424
 21
-21.2892
  0
LINE
  8
LAYER_1
 10
364.5424
 20
-21.2892
 11
364.5424
 21
-21.7545
  0
LINE
  8
LAYER_1
 10
367.3232
 20
-21.0494
 11
368.503
 21
-21.0494
  0
LINE
  8
LAYER_1
 10
368.503
 20
-21.0494
 11
368.503
 21
-20.5839
  0
LINE
  8
LAYER_1
 10
368.503
 20
-20.5839
 11
367.3232
 21
-20.5839
  0
LINE
  8
LAYER_1
 10
367.3232
 20
-20.5839
 11
367.3232
 21
-21.0494
  0
LINE
  8
LAYER_1
 10
367.3232
 20
-21.7545
 11
368.6515
 21
-21.7545
  0
LINE
  8
LAYER_1
 10
368.6515
 20
-21.7545
 11
368.6515
 21
-21.2892
  0
LINE
  8
LAYER_1
 10
368.6515
 20
-21.2892
 11
367.3232
 21
-21.2892
  0
LINE
  8
LAYER_1
 10
367.3232
 20
-21.2892
 11
367.3232
 21
-21.7545
  0
INSERT
  8
LAYER_1
  2
AIGNBL01020006
 10
0
 20
0
 30
0
  0
INSERT
  8
LAYER_1
  2
AIGNBL01020007
 10
0
 20
0
 30
0
  0
INSERT
  8
LAYER_1
  2
AIGNBL01020008
 10
0
 20
0
 30
0
  0
LINE
  8
LAYER_1
 10
341.8503
 20
-18.5614
 11
343.3907
 21
-18.5614
  0
LINE
  8
LAYER_1
 10
343.3907
 20
-18.5614
 11
345.4982
 21
-23.0789
  0
LINE
  8
LAYER_1
 10
345.4982
 20
-23.0789
 11
345.4982
 21
-22.3097
  0
LINE
  8
LAYER_1
 10
345.4982
 20
-22.3097
 11
347.0408
 21
-22.3097
  0
LINE
  8
LAYER_1
 10
347.0408
 20
-22.3097
 11
347.0408
 21
-24.6193
  0
LINE
  8
LAYER_1
 10
347.0408
 20
-24.6193
 11
344.733
 21
-24.6193
  0
LINE
  8
LAYER_1
 10
344.733
 20
-24.6193
 11
343.3867
 21
-21.7969
  0
LINE
  8
LAYER_1
 10
343.3867
 20
-21.7969
 11
343.3867
 21
-24.6193
  0
LINE
  8
LAYER_1
 10
343.3867
 20
-24.6193
 11
341.8503
 21
-24.6193
  0
LINE
  8
LAYER_1
 10
341.8503
 20
-24.6193
 11
341.8503
 21
-18.5614
  0
INSERT
  8
LAYER_1
  2
AIGNBL01020009
 10
0
 20
0
 30
0
  0
ARC
  8
LAYER_1
 10
395.5786
 20
-22.242
 40
1.9913
 50
311.8583482
 51
336.6658108
  0
ARC
  8
LAYER_1
 10
395.1697
 20
-22.0384
 40
2.4475
 50
336.0816629
 51
355.0451577
  0
LINE
  8
LAYER_1
 10
397.6081
 20
-22.2498
 11
397.6081
 21
-19.0493
  0
LINE
  8
LAYER_1
 10
397.6081
 20
-19.0493
 11
396.4218
 21
-19.0493
  0
LINE
  8
LAYER_1
 10
396.4218
 20
-19.0493
 11
396.4218
 21
-21.9151
  0
ARC
  8
LAYER_1
 10
394.9043
 20
-21.8743
 40
1.5181
 50
331.8997994
 51
358.4617397
  0
ARC
  8
LAYER_1
 10
395.693
 20
-22.2197
 40
0.6631
 50
317.1783112
 51
326.1141448
  0
ARC
  8
LAYER_1
 10
394.7472
 20
-21.2653
 40
2.0063
 50
296.3348518
 51
315.5462544
  0
LINE
  8
LAYER_1
 10
395.6372
 20
-23.0634
 11
395.6372
 21
-24.2581
  0
ARC
  8
LAYER_1
 10
395.6875
 20
-23.1227
 40
1.1365
 50
267.4610933
 51
280.8274917
  0
ARC
  8
LAYER_1
 10
395.5637
 20
-22.3867
 40
1.8828
 50
280.3224193
 51
303.5060525
  0
ARC
  8
LAYER_1
 10
395.2774
 20
-21.8976
 40
2.4488
 50
302.7749121
 51
311.7314667
  0
ARC
  8
LAYER_1
 10
383.8143
 20
-21.2369
 40
1.9121
 50
200.4586691
 51
212.6743406
  0
ARC
  8
LAYER_1
 10
360.786
 20
-29.6321
 40
22.5988
 50
19.99339328
 51
22.95988574
  0
ARC
  8
LAYER_1
 10
378.5896
 20
-22.195
 40
3.306
 50
24.64219126
 51
41.47959493
  0
ARC
  8
LAYER_1
 10
379.6635
 20
-21.3145
 40
1.9189
 50
43.02136381
 51
66.4525374
  0
ARC
  8
LAYER_1
 10
379.7013
 20
-21.2722
 40
1.8651
 50
66.99773131
 51
74.27463074
  0
ARC
  8
LAYER_1
 10
379.3508
 20
-22.5666
 40
3.2061
 50
74.51486529
 51
94.05328003
  0
ARC
  8
LAYER_1
 10
379.392
 20
-23.4582
 40
4.0984
 50
93.74732144
 51
109.4959663
  0
ARC
  8
LAYER_1
 10
379.2715
 20
-23.2493
 40
3.8615
 50
108.8440188
 51
117.778427
  0
ARC
  8
LAYER_1
 10
368.4435
 20
-19.7136
 40
9.0291
 50
353.3550611
 51
359.2434011
  0
ARC
  8
LAYER_1
 10
374.5547
 20
-20.4782
 40
2.871
 50
340.8460147
 51
354.3997743
  0
ARC
  8
LAYER_1
 10
375.9411
 20
-20.8643
 40
1.4374
 50
308.1903864
 51
337.2498508
  0
ARC
  8
LAYER_1
 10
376.1421
 20
-21.1609
 40
1.0804
 50
298.9353614
 51
309.5365615
  0
LINE
  8
LAYER_1
 10
376.6648
 20
-22.1064
 11
376.6648
 21
-23.3788
  0
ARC
  8
LAYER_1
 10
376.0891
 20
-20.8092
 40
2.6333
 50
282.6275833
 51
311.7894288
  0
ARC
  8
LAYER_1
 10
376.7045
 20
-21.5914
 40
1.6412
 50
313.9705366
 51
325.1050386
  0
ARC
  8
LAYER_1
 10
376.0318
 20
-21.1669
 40
2.4361
 50
325.9665116
 51
337.2414308
  0
ARC
  8
LAYER_1
 10
374.4028
 20
-20.4763
 40
4.2054
 50
337.1515
 51
344.9151496
  0
ARC
  8
LAYER_1
 10
372.508
 20
-19.9471
 40
6.1727
 50
344.7490067
 51
353.251799
  0
ARC
  8
LAYER_1
 10
379.4321
 20
-22.4505
 40
1.9474
 50
90.6180722
 51
114.0681942
  0
ARC
  8
LAYER_1
 10
379.4062
 20
-21.5939
 40
1.0907
 50
61.47511198
 51
89.74572571
  0
ARC
  8
LAYER_1
 10
379.5536
 20
-21.258
 40
0.7258
 50
38.26639682
 51
59.03554648
  0
ARC
  8
LAYER_1
 10
378.9035
 20
-21.7619
 40
1.5484
 50
25.29799707
 51
38.00699175
  0
ARC
  8
LAYER_1
 10
373.9562
 20
-24.0911
 40
7.0166
 50
19.69522535
 51
25.23020823
  0
ARC
  8
LAYER_1
 10
386.9017
 20
-19.5399
 40
6.7059
 50
199.0295477
 51
214.162191
  0
ARC
  8
LAYER_1
 10
385.1443
 20
-20.5956
 40
4.6603
 50
215.5556124
 51
216.3864845
  0
ARC
  8
LAYER_1
 10
383.6414
 20
-21.6698
 40
2.8133
 50
216.9325242
 51
237.9546338
  0
ARC
  8
LAYER_1
 10
383.2161
 20
-22.3141
 40
2.0416
 50
238.4756375
 51
260.7148979
  0
ARC
  8
LAYER_1
 10
383.0148
 20
-23.1941
 40
1.1421
 50
263.563436
 51
265.8892951
  0
LINE
  8
LAYER_1
 10
382.9329
 20
-24.3332
 11
382.9329
 21
-22.9742
  0
ARC
  8
LAYER_1
 10
383.2995
 20
-22.147
 40
0.9048
 50
229.9708589
 51
246.0997112
  0
ARC
  8
LAYER_1
 10
384.373
 20
-20.8366
 40
2.5987
 50
213.4542661
 51
230.4296508
  0
LINE
  8
LAYER_1
 10
382.0461
 20
-19.8796
 11
381.4305
 21
-19.8796
  0
LINE
  8
LAYER_1
 10
381.4305
 20
-19.8796
 11
381.2715
 21
-18.8814
  0
LINE
  8
LAYER_1
 10
381.2715
 20
-18.8814
 11
381.8879
 21
-18.8814
  0
LINE
  8
LAYER_1
 10
381.8879
 20
-18.8814
 11
382.0461
 21
-19.8796
  0
LINE
  8
LAYER_1
 10
382.9749
 20
-19.8796
 11
382.3589
 21
-19.8796
  0
LINE
  8
LAYER_1
 10
382.3589
 20
-19.8796
 11
382.2003
 21
-18.8814
  0
LINE
  8
LAYER_1
 10
382.2003
 20
-18.8814
 11
382.8166
 21
-18.8814
  0
LINE
  8
LAYER_1
 10
382.8166
 20
-18.8814
 11
382.9749
 21
-19.8796
  0
ARC
  8
LAYER_1
 10
383.3015
 20
-19.5631
 40
1.2594
 50
294.8475139
 51
325.7683798
  0
ARC
  8
LAYER_1
 10
383.5429
 20
-20.0819
 40
0.6872
 50
280.6862974
 51
294.7611954
  0
LINE
  8
LAYER_1
 10
383.6703
 20
-20.7571
 11
383.6703
 21
-22.0072
  0
ARC
  8
LAYER_1
 10
383.344
 20
-19.5706
 40
2.4583
 50
277.6270469
 51
307.9992312
  0
ARC
  8
LAYER_1
 10
383.7418
 20
-20.2045
 40
1.7156
 50
310.5659115
 51
312.159519
  0
ARC
  8
LAYER_1
 10
383.2691
 20
-19.7509
 40
2.3696
 50
313.2689086
 51
336.1337121
  0
ARC
  8
LAYER_1
 10
382.5058
 20
-19.297
 40
3.2531
 50
334.2618182
 51
342.7246342
  0
LINE
  8
LAYER_1
 10
385.6121
 20
-20.263
 11
388.0392
 21
-20.263
  0
ARC
  8
LAYER_1
 10
383.9739
 20
-20.4761
 40
4.0709
 50
346.9044131
 51
3.000125902
  0
ARC
  8
LAYER_1
 10
385.279
 20
-20.7849
 40
2.7298
 50
327.7047814
 51
347.011647
  0
ARC
  8
LAYER_1
 10
386.0741
 20
-21.2402
 40
1.8149
 50
312.9877944
 51
326.444538
  0
ARC
  8
LAYER_1
 10
386.118
 20
-21.2469
 40
1.7802
 50
298.6760348
 51
312.1010268
  0
ARC
  8
LAYER_1
 10
385.675
 20
-20.4334
 40
2.7066
 50
288.7190695
 51
298.639295
  0
ARC
  8
LAYER_1
 10
385.0225
 20
-18.4568
 40
4.788
 50
273.6024816
 51
288.5224779
  0
ARC
  8
LAYER_1
 10
384.7172
 20
-16.1999
 40
7.0615
 50
268.3271271
 51
274.9242143
  0
LINE
  8
LAYER_1
 10
384.5111
 20
-23.2584
 11
384.5111
 21
-24.3879
  0
ARC
  8
LAYER_1
 10
384.9222
 20
-16.1363
 40
8.2618
 50
267.1475499
 51
278.4142478
  0
ARC
  8
LAYER_1
 10
385.3438
 20
-18.8538
 40
5.5119
 50
278.2131806
 51
291.6024907
  0
ARC
  8
LAYER_1
 10
386.2678
 20
-21.293
 40
2.9041
 50
292.3703177
 51
310.8518436
  0
ARC
  8
LAYER_1
 10
386.8541
 20
-22.0381
 40
1.9575
 50
312.1363704
 51
321.4360617
  0
ARC
  8
LAYER_1
 10
386.3054
 20
-21.2741
 40
2.8742
 50
316.3403134
 51
335.9447601
  0
ARC
  8
LAYER_1
 10
384.9293
 20
-20.6215
 40
4.3969
 50
335.488256
 51
350.554217
  0
ARC
  8
LAYER_1
 10
382.2717
 20
-20.0996
 40
7.1046
 50
349.9195385
 51
2.135290941
  0
ARC
  8
LAYER_1
 10
382.2698
 20
-20.0083
 40
7.1036
 50
1.398744845
 51
7.163066818
  0
LINE
  8
LAYER_1
 10
389.318
 20
-19.1225
 11
384.6318
 21
-19.1225
  0
ARC
  8
LAYER_1
 10
379.5156
 20
-18.5727
 40
5.1457
 50
346.1162239
 51
353.8662748
  0
ARC
  8
LAYER_1
 10
382.4971
 20
-19.34
 40
2.0674
 50
333.2186381
 51
346.9319523
  0
ARC
  8
LAYER_1
 10
377.3202
 20
-106.1806
 40
86.8093
 50
78.78738714
 51
80.56602592
  0
LINE
  8
LAYER_1
 10
391.5492
 20
-20.5454
 11
391.5492
 21
-18.9096
  0
LINE
  8
LAYER_1
 10
391.5492
 20
-18.9096
 11
390.2519
 21
-18.9096
  0
LINE
  8
LAYER_1
 10
390.2519
 20
-18.9096
 11
390.2519
 21
-24.3878
  0
LINE
  8
LAYER_1
 10
390.2519
 20
-24.3878
 11
391.5492
 21
-24.3878
  0
LINE
  8
LAYER_1
 10
391.5492
 20
-24.3878
 11
391.5492
 21
-21.7936
  0
ARC
  8
LAYER_1
 10
391.7683
 20
-24.3614
 40
2.5772
 50
85.26865546
 51
94.87746043
  0
ARC
  8
LAYER_1
 10
391.5033
 20
-28.0085
 40
6.2338
 50
76.32266484
 51
85.6060529
  0
ARC
  8
LAYER_1
 10
382.6381
 20
-65.1085
 40
44.3783
 50
73.58287722
 51
76.52742234
  0
LINE
  8
LAYER_1
 10
395.1806
 20
-22.5396
 11
395.1806
 21
-21.2884
  0
ARC
  8
LAYER_1
 10
391.9699
 20
-31.4121
 40
10.6207
 50
72.40350339
 51
77.87703898
  0
ARC
  8
LAYER_1
 10
398.8448
 20
-20.9171
 40
3.2368
 50
288.2682375
 51
307.5749128
  0
ARC
  8
LAYER_1
 10
398.3613
 20
-19.5973
 40
4.6418
 50
274.0145895
 51
288.8290898
  0
ARC
  8
LAYER_1
 10
398.3613
 20
-20.3924
 40
3.8491
 50
268.360011
 51
274.8439918
  0
LINE
  8
LAYER_1
 10
398.2511
 20
-24.2399
 11
398.2511
 21
-18.8434
  0
LINE
  8
LAYER_1
 10
398.2511
 20
-18.8434
 11
399.5399
 21
-18.8434
  0
LINE
  8
LAYER_1
 10
399.5399
 20
-18.8434
 11
399.5399
 21
-22.8383
  0
ARC
  8
LAYER_1
 10
399.4517
 20
-22.1335
 40
0.7103
 50
277.1314049
 51
295.958207
  0
ARC
  8
LAYER_1
 10
399.2347
 20
-21.686
 40
1.2076
 50
295.9193969
 51
325.4807177
  0
ARC
  8
LAYER_1
 10
398.8695
 20
-21.3577
 40
1.6958
 50
323.3344126
 51
327.8455613
  0
ARC
  8
LAYER_1
 10
399.1066
 20
-21.533
 40
1.402
 50
328.7531989
 51
343.565724
  0
ARC
  8
LAYER_1
 10
397.8941
 20
-21.1698
 40
2.6676
 50
343.4517323
 51
352.9550404
  0
ARC
  8
LAYER_1
 10
395.8265
 20
-20.9078
 40
4.7519
 50
352.8778474
 51
4.074282284
  0
LINE
  8
LAYER_1
 10
400.5663
 20
-20.5702
 11
401.7518
 21
-20.5702
  0
ARC
  8
LAYER_1
 10
396.0073
 20
-20.8036
 40
5.7492
 50
348.7700242
 51
2.327056706
  0
ARC
  8
LAYER_1
 10
398.1033
 20
-21.2258
 40
3.6112
 50
332.2787231
 51
348.8637636
  0
ARC
  8
LAYER_1
 10
399.5807
 20
-21.96
 40
1.9622
 50
309.1155271
 51
331.1884291
  0
ENDBLK
  0
BLOCK
  8
LAYER_1
  2
AIGNBL0101000A
 70
64
 10
0
 20
0
 30
0
  3
AIGNBL0101000A
  0
INSERT
  8
LAYER_1
  2
AIGNBL0102000B
 10
0
 20
0
 30
0
  0
INSERT
  8
LAYER_1
  2
AIGNBL0102000C
 10
0
 20
0
 30
0
  0
INSERT
  8
LAYER_1
  2
AIGNBL0102000D
 10
0
 20
0
 30
0
  0
INSERT
  8
LAYER_1
  2
AIGNBL0102000E
 10
0
 20
0
 30
0
  0
INSERT
  8
LAYER_1
  2
AIGNBL0102000F
 10
0
 20
0
 30
0
  0
INSERT
  8
LAYER_1
  2
AIGNBL01020010
 10
0
 20
0
 30
0
  0
INSERT
  8
LAYER_1
  2
AIGNBL01020011
 10
0
 20
0
 30
0
  0
INSERT
  8
LAYER_1
  2
AIGNBL01020012
 10
0
 20
0
 30
0
  0
INSERT
  8
LAYER_1
  2
AIGNBL01020013
 10
0
 20
0
 30
0
  0
INSERT
  8
LAYER_1
  2
AIGNBL01020014
 10
0
 20
0
 30
0
  0
INSERT
  8
LAYER_1
  2
AIGNBL01020015
 10
0
 20
0
 30
0
  0
INSERT
  8
LAYER_1
  2
AIGNBL01020016
 10
0
 20
0
 30
0
  0
INSERT
  8
LAYER_1
  2
AIGNBL01020017
 10
0
 20
0
 30
0
  0
INSERT
  8
LAYER_1
  2
AIGNBL01020018
 10
0
 20
0
 30
0
  0
INSERT
  8
LAYER_1
  2
AIGNBL01020019
 10
0
 20
0
 30
0
  0
INSERT
  8
LAYER_1
  2
AIGNBL0102001A
 10
0
 20
0
 30
0
  0
INSERT
  8
LAYER_1
  2
AIGNBL0102001B
 10
0
 20
0
 30
0
  0
INSERT
  8
LAYER_1
  2
AIGNBL0102001C
 10
0
 20
0
 30
0
  0
INSERT
  8
LAYER_1
  2
AIGNBL0102001D
 10
0
 20
0
 30
0
  0
INSERT
  8
LAYER_1
  2
AIGNBL0102001E
 10
0
 20
0
 30
0
  0
INSERT
  8
LAYER_1
  2
AIGNBL0102001F
 10
0
 20
0
 30
0
  0
INSERT
  8
LAYER_1
  2
AIGNBL01020020
 10
0
 20
0
 30
0
  0
ENDBLK
  0
BLOCK
  8
LAYER_2
  2
AIGNBL02010002
 70
64
 10
0
 20
0
 30
0
  3
AIGNBL02010002
  0
INSERT
  8
LAYER_2
  2
AIGNBL02020003
 10
0
 20
0
 30
0
  0
INSERT
  8
LAYER_2
  2
AIGNBL02020004
 10
0
 20
0
 30
0
  0
INSERT
  8
LAYER_2
  2
AIGNBL02020005
 10
0
 20
0
 30
0
  0
INSERT
  8
LAYER_2
  2
AIGNBL02020006
 10
0
 20
0
 30
0
  0
INSERT
  8
LAYER_2
  2
AIGNBL02020007
 10
0
 20
0
 30
0
  0
INSERT
  8
LAYER_2
  2
AIGNBL02020008
 10
0
 20
0
 30
0
  0
INSERT
  8
LAYER_2
  2
AIGNBL02020009
 10
0
 20
0
 30
0
  0
INSERT
  8
LAYER_2
  2
AIGNBL0202000A
 10
0
 20
0
 30
0
  0
INSERT
  8
LAYER_2
  2
AIGNBL0202000B
 10
0
 20
0
 30
0
  0
INSERT
  8
LAYER_2
  2
AIGNBL0202000C
 10
0
 20
0
 30
0
  0
INSERT
  8
LAYER_2
  2
AIGNBL0202000D
 10
0
 20
0
 30
0
  0
INSERT
  8
LAYER_2
  2
AIGNBL0202000E
 10
0
 20
0
 30
0
  0
INSERT
  8
LAYER_2
  2
AIGNBL0202000F
 10
0
 20
0
 30
0
  0
INSERT
  8
LAYER_2
  2
AIGNBL02020010
 10
0
 20
0
 30
0
  0
INSERT
  8
LAYER_2
  2
AIGNBL02020011
 10
0
 20
0
 30
0
  0
INSERT
  8
LAYER_2
  2
AIGNBL02020012
 10
0
 20
0
 30
0
  0
INSERT
  8
LAYER_2
  2
AIGNBL02020013
 10
0
 20
0
 30
0
  0
INSERT
  8
LAYER_2
  2
AIGNBL02020014
 10
0
 20
0
 30
0
  0
INSERT
  8
LAYER_2
  2
AIGNBL02020015
 10
0
 20
0
 30
0
  0
INSERT
  8
LAYER_2
  2
AIGNBL02020016
 10
0
 20
0
 30
0
  0
INSERT
  8
LAYER_2
  2
AIGNBL02020017
 10
0
 20
0
 30
0
  0
INSERT
  8
LAYER_2
  2
AIGNBL02020018
 10
0
 20
0
 30
0
  0
INSERT
  8
LAYER_2
  2
AIGNBL02020019
 10
0
 20
0
 30
0
  0
INSERT
  8
LAYER_2
  2
AIGNBL0202001A
 10
0
 20
0
 30
0
  0
INSERT
  8
LAYER_2
  2
AIGNBL0202001B
 10
0
 20
0
 30
0
  0
INSERT
  8
LAYER_2
  2
AIGNBL0202001C
 10
0
 20
0
 30
0
  0
INSERT
  8
LAYER_2
  2
AIGNBL0202001D
 10
0
 20
0
 30
0
  0
INSERT
  8
LAYER_2
  2
AIGNBL0202001E
 10
0
 20
0
 30
0
  0
INSERT
  8
LAYER_2
  2
AIGNBL0202001F
 10
0
 20
0
 30
0
  0
INSERT
  8
LAYER_2
  2
AIGNBL02020020
 10
0
 20
0
 30
0
  0
INSERT
  8
LAYER_2
  2
AIGNBL02020021
 10
0
 20
0
 30
0
  0
INSERT
  8
LAYER_2
  2
AIGNBL02020022
 10
0
 20
0
 30
0
  0
INSERT
  8
LAYER_2
  2
AIGNBL02020023
 10
0
 20
0
 30
0
  0
INSERT
  8
LAYER_2
  2
AIGNBL02020024
 10
0
 20
0
 30
0
  0
INSERT
  8
LAYER_2
  2
AIGNBL02020025
 10
0
 20
0
 30
0
  0
INSERT
  8
LAYER_2
  2
AIGNBL02020026
 10
0
 20
0
 30
0
  0
INSERT
  8
LAYER_2
  2
AIGNBL02020027
 10
0
 20
0
 30
0
  0
INSERT
  8
LAYER_2
  2
AIGNBL02020028
 10
0
 20
0
 30
0
  0
INSERT
  8
LAYER_2
  2
AIGNBL02020029
 10
0
 20
0
 30
0
  0
INSERT
  8
LAYER_2
  2
AIGNBL0202002A
 10
0
 20
0
 30
0
  0
INSERT
  8
LAYER_2
  2
AIGNBL0202002B
 10
0
 20
0
 30
0
  0
INSERT
  8
LAYER_2
  2
AIGNBL0202002C
 10
0
 20
0
 30
0
  0
INSERT
  8
LAYER_2
  2
AIGNBL0202002D
 10
0
 20
0
 30
0
  0
INSERT
  8
LAYER_2
  2
AIGNBL0202002E
 10
0
 20
0
 30
0
  0
INSERT
  8
LAYER_2
  2
AIGNBL0202002F
 10
0
 20
0
 30
0
  0
INSERT
  8
LAYER_2
  2
AIGNBL02020030
 10
0
 20
0
 30
0
  0
INSERT
  8
LAYER_2
  2
AIGNBL02020031
 10
0
 20
0
 30
0
  0
INSERT
  8
LAYER_2
  2
AIGNBL02020032
 10
0
 20
0
 30
0
  0
INSERT
  8
LAYER_2
  2
AIGNBL02020033
 10
0
 20
0
 30
0
  0
INSERT
  8
LAYER_2
  2
AIGNBL02020034
 10
0
 20
0
 30
0
  0
INSERT
  8
LAYER_2
  2
AIGNBL02020035
 10
0
 20
0
 30
0
  0
INSERT
  8
LAYER_2
  2
AIGNBL02020036
 10
0
 20
0
 30
0
  0
INSERT
  8
LAYER_2
  2
AIGNBL02020037
 10
0
 20
0
 30
0
  0
INSERT
  8
LAYER_2
  2
AIGNBL02020038
 10
0
 20
0
 30
0
  0
INSERT
  8
LAYER_2
  2
AIGNBL02020039
 10
0
 20
0
 30
0
  0
INSERT
  8
LAYER_2
  2
AIGNBL0202003A
 10
0
 20
0
 30
0
  0
INSERT
  8
LAYER_2
  2
AIGNBL0202003B
 10
0
 20
0
 30
0
  0
INSERT
  8
LAYER_2
  2
AIGNBL0202003C
 10
0
 20
0
 30
0
  0
INSERT
  8
LAYER_2
  2
AIGNBL0202003D
 10
0
 20
0
 30
0
  0
INSERT
  8
LAYER_2
  2
AIGNBL0202003E
 10
0
 20
0
 30
0
  0
INSERT
  8
LAYER_2
  2
AIGNBL0202003F
 10
0
 20
0
 30
0
  0
INSERT
  8
LAYER_2
  2
AIGNBL02020040
 10
0
 20
0
 30
0
  0
INSERT
  8
LAYER_2
  2
AIGNBL02020041
 10
0
 20
0
 30
0
  0
INSERT
  8
LAYER_2
  2
AIGNBL02020042
 10
0
 20
0
 30
0
  0
INSERT
  8
LAYER_2
  2
AIGNBL02020043
 10
0
 20
0
 30
0
  0
INSERT
  8
LAYER_2
  2
AIGNBL02020044
 10
0
 20
0
 30
0
  0
INSERT
  8
LAYER_2
  2
AIGNBL02020045
 10
0
 20
0
 30
0
  0
INSERT
  8
LAYER_2
  2
AIGNBL02020046
 10
0
 20
0
 30
0
  0
INSERT
  8
LAYER_2
  2
AIGNBL02020047
 10
0
 20
0
 30
0
  0
INSERT
  8
LAYER_2
  2
AIGNBL02020048
 10
0
 20
0
 30
0
  0
INSERT
  8
LAYER_2
  2
AIGNBL02020049
 10
0
 20
0
 30
0
  0
INSERT
  8
LAYER_2
  2
AIGNBL0202004A
 10
0
 20
0
 30
0
  0
INSERT
  8
LAYER_2
  2
AIGNBL0202004B
 10
0
 20
0
 30
0
  0
INSERT
  8
LAYER_2
  2
AIGNBL0202004C
 10
0
 20
0
 30
0
  0
INSERT
  8
LAYER_2
  2
AIGNBL0202004D
 10
0
 20
0
 30
0
  0
INSERT
  8
LAYER_2
  2
AIGNBL0202004E
 10
0
 20
0
 30
0
  0
INSERT
  8
LAYER_2
  2
AIGNBL0202004F
 10
0
 20
0
 30
0
  0
INSERT
  8
LAYER_2
  2
AIGNBL02020050
 10
0
 20
0
 30
0
  0
INSERT
  8
LAYER_2
  2
AIGNBL02020051
 10
0
 20
0
 30
0
  0
INSERT
  8
LAYER_2
  2
AIGNBL02020052
 10
0
 20
0
 30
0
  0
INSERT
  8
LAYER_2
  2
AIGNBL02020053
 10
0
 20
0
 30
0
  0
INSERT
  8
LAYER_2
  2
AIGNBL02020054
 10
0
 20
0
 30
0
  0
INSERT
  8
LAYER_2
  2
AIGNBL02020055
 10
0
 20
0
 30
0
  0
INSERT
  8
LAYER_2
  2
AIGNBL02020056
 10
0
 20
0
 30
0
  0
INSERT
  8
LAYER_2
  2
AIGNBL02020057
 10
0
 20
0
 30
0
  0
INSERT
  8
LAYER_2
  2
AIGNBL02020058
 10
0
 20
0
 30
0
  0
INSERT
  8
LAYER_2
  2
AIGNBL02020059
 10
0
 20
0
 30
0
  0
INSERT
  8
LAYER_2
  2
AIGNBL0202005A
 10
0
 20
0
 30
0
  0
INSERT
  8
LAYER_2
  2
AIGNBL0202005B
 10
0
 20
0
 30
0
  0
INSERT
  8
LAYER_2
  2
AIGNBL0202005C
 10
0
 20
0
 30
0
  0
INSERT
  8
LAYER_2
  2
AIGNBL0202005D
 10
0
 20
0
 30
0
  0
INSERT
  8
LAYER_2
  2
AIGNBL0202005E
 10
0
 20
0
 30
0
  0
INSERT
  8
LAYER_2
  2
AIGNBL0202005F
 10
0
 20
0
 30
0
  0
INSERT
  8
LAYER_2
  2
AIGNBL02020060
 10
0
 20
0
 30
0
  0
INSERT
  8
LAYER_2
  2
AIGNBL02020061
 10
0
 20
0
 30
0
  0
INSERT
  8
LAYER_2
  2
AIGNBL02020062
 10
0
 20
0
 30
0
  0
INSERT
  8
LAYER_2
  2
AIGNBL02020063
 10
0
 20
0
 30
0
  0
INSERT
  8
LAYER_2
  2
AIGNBL02020064
 10
0
 20
0
 30
0
  0
INSERT
  8
LAYER_2
  2
AIGNBL02020065
 10
0
 20
0
 30
0
  0
INSERT
  8
LAYER_2
  2
AIGNBL02020066
 10
0
 20
0
 30
0
  0
INSERT
  8
LAYER_2
  2
AIGNBL02020067
 10
0
 20
0
 30
0
  0
INSERT
  8
LAYER_2
  2
AIGNBL02020068
 10
0
 20
0
 30
0
  0
INSERT
  8
LAYER_2
  2
AIGNBL02020069
 10
0
 20
0
 30
0
  0
INSERT
  8
LAYER_2
  2
AIGNBL0202006A
 10
0
 20
0
 30
0
  0
INSERT
  8
LAYER_2
  2
AIGNBL0202006B
 10
0
 20
0
 30
0
  0
INSERT
  8
LAYER_2
  2
AIGNBL0202006C
 10
0
 20
0
 30
0
  0
INSERT
  8
LAYER_2
  2
AIGNBL0202006D
 10
0
 20
0
 30
0
  0
INSERT
  8
LAYER_2
  2
AIGNBL0202006E
 10
0
 20
0
 30
0
  0
INSERT
  8
LAYER_2
  2
AIGNBL0202006F
 10
0
 20
0
 30
0
  0
INSERT
  8
LAYER_2
  2
AIGNBL02020070
 10
0
 20
0
 30
0
  0
INSERT
  8
LAYER_2
  2
AIGNBL02020071
 10
0
 20
0
 30
0
  0
INSERT
  8
LAYER_2
  2
AIGNBL02020072
 10
0
 20
0
 30
0
  0
INSERT
  8
LAYER_2
  2
AIGNBL02020073
 10
0
 20
0
 30
0
  0
INSERT
  8
LAYER_2
  2
AIGNBL02020074
 10
0
 20
0
 30
0
  0
INSERT
  8
LAYER_2
  2
AIGNBL02020075
 10
0
 20
0
 30
0
  0
INSERT
  8
LAYER_2
  2
AIGNBL02020076
 10
0
 20
0
 30
0
  0
INSERT
  8
LAYER_2
  2
AIGNBL02020077
 10
0
 20
0
 30
0
  0
INSERT
  8
LAYER_2
  2
AIGNBL02020078
 10
0
 20
0
 30
0
  0
INSERT
  8
LAYER_2
  2
AIGNBL02020079
 10
0
 20
0
 30
0
  0
INSERT
  8
LAYER_2
  2
AIGNBL0202007A
 10
0
 20
0
 30
0
  0
INSERT
  8
LAYER_2
  2
AIGNBL0202007B
 10
0
 20
0
 30
0
  0
INSERT
  8
LAYER_2
  2
AIGNBL0202007C
 10
0
 20
0
 30
0
  0
INSERT
  8
LAYER_2
  2
AIGNBL0202007D
 10
0
 20
0
 30
0
  0
INSERT
  8
LAYER_2
  2
AIGNBL0202007E
 10
0
 20
0
 30
0
  0
INSERT
  8
LAYER_2
  2
AIGNBL0202007F
 10
0
 20
0
 30
0
  0
INSERT
  8
LAYER_2
  2
AIGNBL02020080
 10
0
 20
0
 30
0
  0
INSERT
  8
LAYER_2
  2
AIGNBL02020081
 10
0
 20
0
 30
0
  0
INSERT
  8
LAYER_2
  2
AIGNBL02020082
 10
0
 20
0
 30
0
  0
INSERT
  8
LAYER_2
  2
AIGNBL02020083
 10
0
 20
0
 30
0
  0
INSERT
  8
LAYER_2
  2
AIGNBL02020084
 10
0
 20
0
 30
0
  0
INSERT
  8
LAYER_2
  2
AIGNBL02020085
 10
0
 20
0
 30
0
  0
INSERT
  8
LAYER_2
  2
AIGNBL02020086
 10
0
 20
0
 30
0
  0
INSERT
  8
LAYER_2
  2
AIGNBL02020087
 10
0
 20
0
 30
0
  0
INSERT
  8
LAYER_2
  2
AIGNBL02020088
 10
0
 20
0
 30
0
  0
INSERT
  8
LAYER_2
  2
AIGNBL02020089
 10
0
 20
0
 30
0
  0
INSERT
  8
LAYER_2
  2
AIGNBL0202008A
 10
0
 20
0
 30
0
  0
INSERT
  8
LAYER_2
  2
AIGNBL0202008B
 10
0
 20
0
 30
0
  0
INSERT
  8
LAYER_2
  2
AIGNBL0202008C
 10
0
 20
0
 30
0
  0
INSERT
  8
LAYER_2
  2
AIGNBL0202008D
 10
0
 20
0
 30
0
  0
INSERT
  8
LAYER_2
  2
AIGNBL0202008E
 10
0
 20
0
 30
0
  0
INSERT
  8
LAYER_2
  2
AIGNBL0202008F
 10
0
 20
0
 30
0
  0
INSERT
  8
LAYER_2
  2
AIGNBL02020090
 10
0
 20
0
 30
0
  0
INSERT
  8
LAYER_2
  2
AIGNBL02020091
 10
0
 20
0
 30
0
  0
INSERT
  8
LAYER_2
  2
AIGNBL02020092
 10
0
 20
0
 30
0
  0
INSERT
  8
LAYER_2
  2
AIGNBL02020093
 10
0
 20
0
 30
0
  0
INSERT
  8
LAYER_2
  2
AIGNBL02020094
 10
0
 20
0
 30
0
  0
INSERT
  8
LAYER_2
  2
AIGNBL02020095
 10
0
 20
0
 30
0
  0
INSERT
  8
LAYER_2
  2
AIGNBL02020096
 10
0
 20
0
 30
0
  0
INSERT
  8
LAYER_2
  2
AIGNBL02020097
 10
0
 20
0
 30
0
  0
INSERT
  8
LAYER_2
  2
AIGNBL02020098
 10
0
 20
0
 30
0
  0
INSERT
  8
LAYER_2
  2
AIGNBL02020099
 10
0
 20
0
 30
0
  0
INSERT
  8
LAYER_2
  2
AIGNBL0202009A
 10
0
 20
0
 30
0
  0
INSERT
  8
LAYER_2
  2
AIGNBL0202009B
 10
0
 20
0
 30
0
  0
INSERT
  8
LAYER_2
  2
AIGNBL0202009C
 10
0
 20
0
 30
0
  0
INSERT
  8
LAYER_2
  2
AIGNBL0202009D
 10
0
 20
0
 30
0
  0
INSERT
  8
LAYER_2
  2
AIGNBL0202009E
 10
0
 20
0
 30
0
  0
INSERT
  8
LAYER_2
  2
AIGNBL0202009F
 10
0
 20
0
 30
0
  0
INSERT
  8
LAYER_2
  2
AIGNBL020200A0
 10
0
 20
0
 30
0
  0
INSERT
  8
LAYER_2
  2
AIGNBL020200A1
 10
0
 20
0
 30
0
  0
INSERT
  8
LAYER_2
  2
AIGNBL020200A2
 10
0
 20
0
 30
0
  0
INSERT
  8
LAYER_2
  2
AIGNBL020200A3
 10
0
 20
0
 30
0
  0
INSERT
  8
LAYER_2
  2
AIGNBL020200A4
 10
0
 20
0
 30
0
  0
INSERT
  8
LAYER_2
  2
AIGNBL020200A5
 10
0
 20
0
 30
0
  0
INSERT
  8
LAYER_2
  2
AIGNBL020200A6
 10
0
 20
0
 30
0
  0
INSERT
  8
LAYER_2
  2
AIGNBL020200A7
 10
0
 20
0
 30
0
  0
INSERT
  8
LAYER_2
  2
AIGNBL020200A8
 10
0
 20
0
 30
0
  0
INSERT
  8
LAYER_2
  2
AIGNBL020200A9
 10
0
 20
0
 30
0
  0
INSERT
  8
LAYER_2
  2
AIGNBL020200AA
 10
0
 20
0
 30
0
  0
INSERT
  8
LAYER_2
  2
AIGNBL020200AB
 10
0
 20
0
 30
0
  0
INSERT
  8
LAYER_2
  2
AIGNBL020200AC
 10
0
 20
0
 30
0
  0
INSERT
  8
LAYER_2
  2
AIGNBL020200AD
 10
0
 20
0
 30
0
  0
INSERT
  8
LAYER_2
  2
AIGNBL020200AE
 10
0
 20
0
 30
0
  0
INSERT
  8
LAYER_2
  2
AIGNBL020200AF
 10
0
 20
0
 30
0
  0
INSERT
  8
LAYER_2
  2
AIGNBL020200B0
 10
0
 20
0
 30
0
  0
INSERT
  8
LAYER_2
  2
AIGNBL020200B1
 10
0
 20
0
 30
0
  0
INSERT
  8
LAYER_2
  2
AIGNBL020200B2
 10
0
 20
0
 30
0
  0
INSERT
  8
LAYER_2
  2
AIGNBL020200B3
 10
0
 20
0
 30
0
  0
INSERT
  8
LAYER_2
  2
AIGNBL020200B4
 10
0
 20
0
 30
0
  0
INSERT
  8
LAYER_2
  2
AIGNBL020200B5
 10
0
 20
0
 30
0
  0
INSERT
  8
LAYER_2
  2
AIGNBL020200B6
 10
0
 20
0
 30
0
  0
INSERT
  8
LAYER_2
  2
AIGNBL020200B7
 10
0
 20
0
 30
0
  0
INSERT
  8
LAYER_2
  2
AIGNBL020200B8
 10
0
 20
0
 30
0
  0
INSERT
  8
LAYER_2
  2
AIGNBL020200B9
 10
0
 20
0
 30
0
  0
INSERT
  8
LAYER_2
  2
AIGNBL020200BA
 10
0
 20
0
 30
0
  0
INSERT
  8
LAYER_2
  2
AIGNBL020200BB
 10
0
 20
0
 30
0
  0
INSERT
  8
LAYER_2
  2
AIGNBL020200BC
 10
0
 20
0
 30
0
  0
INSERT
  8
LAYER_2
  2
AIGNBL020200BD
 10
0
 20
0
 30
0
  0
INSERT
  8
LAYER_2
  2
AIGNBL020200BE
 10
0
 20
0
 30
0
  0
INSERT
  8
LAYER_2
  2
AIGNBL020200BF
 10
0
 20
0
 30
0
  0
INSERT
  8
LAYER_2
  2
AIGNBL020200C0
 10
0
 20
0
 30
0
  0
INSERT
  8
LAYER_2
  2
AIGNBL020200C1
 10
0
 20
0
 30
0
  0
INSERT
  8
LAYER_2
  2
AIGNBL020200C2
 10
0
 20
0
 30
0
  0
INSERT
  8
LAYER_2
  2
AIGNBL020200C3
 10
0
 20
0
 30
0
  0
INSERT
  8
LAYER_2
  2
AIGNBL020200C4
 10
0
 20
0
 30
0
  0
INSERT
  8
LAYER_2
  2
AIGNBL020200C5
 10
0
 20
0
 30
0
  0
INSERT
  8
LAYER_2
  2
AIGNBL020200C6
 10
0
 20
0
 30
0
  0
INSERT
  8
LAYER_2
  2
AIGNBL020200C7
 10
0
 20
0
 30
0
  0
INSERT
  8
LAYER_2
  2
AIGNBL020200C8
 10
0
 20
0
 30
0
  0
INSERT
  8
LAYER_2
  2
AIGNBL020200C9
 10
0
 20
0
 30
0
  0
ENDBLK
  0
ENDSEC
  0
SECTION
  2
ENTITIES
  0
INSERT
  8
LAYER_1
  2
AIGNBL01010002
 10
0
 20
0
 30
0
  0
TEXT
  8
LAYER_1
 10
348.9088
 20
-30.5741
 11
348.9088
 21
-30.5741
 40
3.1044
 41
0.5
 72
1
  1
品名
  0
TEXT
  8
LAYER_1
 10
348.9088
 20
-35.2308
 11
348.9088
 21
-35.2308
 40
3.1044
 41
0.5
 72
1
  1
PRODUCT
  0
TEXT
  8
LAYER_1
 10
414.219
 20
-30.5741
 11
414.219
 21
-30.5741
 40
3.1044
 41
0.5
 72
1
  1
型式
  0
TEXT
  8
LAYER_1
 10
414.219
 20
-35.2308
 11
414.219
 21
-35.2308
 40
3.1044
 41
0.5
 72
1
  1
TYPE
  0
TEXT
  8
LAYER_1
 10
414.219
 20
-40.4516
 11
414.219
 21
-40.4516
 40
3.1044
 41
0.5
 72
1
  1
単位
  0
TEXT
  8
LAYER_1
 10
414.219
 20
-45.1084
 11
414.219
 21
-45.1084
 40
3.1044
 41
0.5
 72
1
  1
UNIT
  0
TEXT
  8
LAYER_1
 10
414.219
 20
-60.5799
 11
414.219
 21
-60.5799
 40
3.4815
 41
0.5
 72
1
  1
設計
  0
TEXT
  8
LAYER_1
 10
414.2191
 20
-65.802
 11
414.2191
 21
-65.802
 40
3.4815
 41
0.5
 72
1
  1
DESIGNED
  0
TEXT
  8
LAYER_1
 10
349.219
 20
-40.4517
 11
349.219
 21
-40.4517
 40
3.1044
 41
0.5
 72
1
  1
寸法
  0
TEXT
  8
LAYER_1
 10
349.219
 20
-45.1085
 11
349.219
 21
-45.1085
 40
3.1044
 41
0.5
 72
1
  1
SIZE
  0
TEXT
  8
LAYER_1
 10
349.219
 20
-60.5801
 11
349.219
 21
-60.5801
 40
3.1044
 41
0.5
 72
1
  1
材質
  0
TEXT
  8
LAYER_1
 10
349.219
 20
-65.2368
 11
349.219
 21
-65.2368
 40
3.1044
 41
0.5
 72
1
  1
MATERIAL
  0
TEXT
  8
LAYER_1
 10
349.7268
 20
-50.452
 11
349.7268
 21
-50.452
 40
3.1044
 41
0.5
 72
1
  1
ネジ
  0
TEXT
  8
LAYER_1
 10
349.219
 20
-55.1087
 11
349.219
 21
-55.1087
 40
3.1044
 41
0.5
 72
1
  1
SCREW
  0
TEXT
  8
LAYER_1
 10
413.9088
 20
-50.4519
 11
413.9088
 21
-50.4519
 40
3.1044
 41
0.5
 72
1
  1
日付
  0
TEXT
  8
LAYER_1
 10
413.9088
 20
-55.1086
 11
413.9088
 21
-55.1086
 40
3.1044
 41
0.5
 72
1
  1
DATE
  0
TEXT
  8
LAYER_1
 10
380.3578
 20
-43.2231
 11
380.3578
 21
-43.2231
 40
3.6689
 41
0.5
 72
1
  1
W68×H120×D72
  0
TEXT
  8
LAYER_1
 10
446.7193
 20
-43.2231
 11
446.7193
 21
-43.2231
 40
3.6689
 41
0.5
 72
1
  1
mm
  0
TEXT
  8
LAYER_1
 10
446.7193
 20
-33.2231
 11
446.7193
 21
-33.2231
 40
3.6689
 41
0.5
 72
1
  1
NR-3PLZ
  0
TEXT
  8
LAYER_1
 10
446.7193
 20
-53.2231
 11
446.7193
 21
-53.2231
 40
3.6689
 41
0.5
 72
1
  1
2017.07.24
  0
TEXT
  8
LAYER_1
 10
446.719
 20
-63.2231
 11
446.719
 21
-63.2231
 40
3.6689
 41
0.5
 72
1
  1
戸森 幹二
  0
TEXT
  8
LAYER_1
 10
383.9855
 20
-63.2231
 11
383.9855
 21
-63.2231
 40
3.6689
 41
0.5
 72
1
  1
鉄 アイボリー/黒
  0
TEXT
  8
LAYER_1
 10
381.719
 20
-30.8515
 11
381.719
 21
-30.8515
 40
3.1044
 41
0.5
 72
1
  1
3線式交流電源用
  0
TEXT
  8
LAYER_1
 10
383.5683
 20
-35.5083
 11
383.5683
 21
-35.5083
 40
3.1044
 41
0.5
 72
1
  1
モリブデン避雷器
  0
TEXT
  8
LAYER_1
 10
383.9476
 20
-50.8515
 11
383.9476
 21
-50.8515
 40
3.1044
 41
0.5
 72
1
  1
黄銅 ニッケルメッキ
  0
TEXT
  8
LAYER_1
 10
381.7193
 20
-55.5083
 11
381.7193
 21
-55.5083
 40
3.1044
 41
0.5
 72
1
  1
M4
  0
INSERT
  8
LAYER_1
  2
AIGNBL01010003
 10
0
 20
0
 30
0
  0
INSERT
  8
LAYER_1
  2
AIGNBL0101000A
 10
0
 20
0
 30
0
  0
INSERT
  8
LAYER_2
  2
AIGNBL02010002
 10
0
 20
0
 30
0
  0
ENDSEC
  0
EOF
