  0
SECTION
  2
HEADER
  9
$ACADVER
  1
AC1009
  9
$LUNITS
 70
2
  9
$LUPREC
 70
4
  9
$LTSCALE
 40
1.0
  9
$EXTMIN
 10
124.874
 20
-66.6014
 30
0
  9
$EXTMAX
 10
469.2192
 20
169.592
 30
0
  0
ENDSEC
  0
SECTION
  2
TABLES
  0
TABLE
  2
LTYPE
 70
256
  0
ENDTAB
  0
TABLE
  2
LAYER
 70
4
  0
LAYER
  2
LAYER_1
 70
64
 62
7
  6
CONTINUOUS
  0
LAYER
  2
LAYER_2
 70
64
 62
7
  6
CONTINUOUS
  0
LAYER
  2
LAYER_3
 70
64
 62
7
  6
CONTINUOUS
  0
LAYER
  2
LAYER_4
 70
64
 62
7
  6
CONTINUOUS
  0
ENDTAB
  0
TABLE
  2
STYLE
 70
6
  0
STYLE
  2
STANDARD
 70
0
 40
0
 50
0
 71
0
 41
0
 42
0
  3
TXT
  4
BIGFONT
  0
ENDTAB
  0
ENDSEC
  0
SECTION
  2
BLOCKS
  0
BLOCK
  8
LAYER_1
  2
AIGNBL01020004
 70
64
 10
0
 20
0
 30
0
  3
AIGNBL01020004
  0
LINE
  8
LAYER_1
 10
351.6169
 20
-18.6827
 11
351.6169
 21
-24.6402
  0
LINE
  8
LAYER_1
 10
351.6169
 20
-24.6402
 11
352.6415
 21
-24.6402
  0
LINE
  8
LAYER_1
 10
352.6415
 20
-24.6402
 11
352.6415
 21
-24.1943
  0
LINE
  8
LAYER_1
 10
352.6415
 20
-24.1943
 11
355.3191
 21
-24.1943
  0
LINE
  8
LAYER_1
 10
355.3191
 20
-24.1943
 11
355.3191
 21
-24.6402
  0
LINE
  8
LAYER_1
 10
355.3191
 20
-24.6402
 11
356.3916
 21
-24.6402
  0
LINE
  8
LAYER_1
 10
356.3916
 20
-24.6402
 11
356.3916
 21
-18.6827
  0
LINE
  8
LAYER_1
 10
356.3916
 20
-18.6827
 11
351.6169
 21
-18.6827
  0
LINE
  8
LAYER_1
 10
355.3191
 20
-23.2015
 11
352.6414
 21
-23.2015
  0
LINE
  8
LAYER_1
 10
352.6414
 20
-23.2015
 11
352.6414
 21
-21.9114
  0
LINE
  8
LAYER_1
 10
352.6414
 20
-21.9114
 11
355.3191
 21
-21.9114
  0
LINE
  8
LAYER_1
 10
355.3191
 20
-21.9114
 11
355.3191
 21
-23.2015
  0
LINE
  8
LAYER_1
 10
355.3191
 20
-20.9388
 11
352.6414
 21
-20.9388
  0
LINE
  8
LAYER_1
 10
352.6414
 20
-20.9388
 11
352.6414
 21
-19.6756
  0
LINE
  8
LAYER_1
 10
352.6414
 20
-19.6756
 11
355.3191
 21
-19.6756
  0
LINE
  8
LAYER_1
 10
355.3191
 20
-19.6756
 11
355.3191
 21
-20.9388
  0
ENDBLK
  0
BLOCK
  8
LAYER_1
  2
AIGNBL01020005
 70
64
 10
0
 20
0
 30
0
  3
AIGNBL01020005
  0
LINE
  8
LAYER_1
 10
361.151
 20
-20.6576
 11
362.9908
 21
-20.6576
  0
LINE
  8
LAYER_1
 10
362.9908
 20
-20.6576
 11
362.9908
 21
-19.7345
  0
LINE
  8
LAYER_1
 10
362.9908
 20
-19.7345
 11
360.6104
 21
-19.7345
  0
LINE
  8
LAYER_1
 10
360.6104
 20
-19.7345
 11
360.6104
 21
-18.5234
  0
LINE
  8
LAYER_1
 10
360.6104
 20
-18.5234
 11
359.664
 21
-18.5234
  0
LINE
  8
LAYER_1
 10
359.664
 20
-18.5234
 11
359.664
 21
-19.7345
  0
LINE
  8
LAYER_1
 10
359.664
 20
-19.7345
 11
357.2985
 21
-19.7345
  0
LINE
  8
LAYER_1
 10
357.2985
 20
-19.7345
 11
357.2985
 21
-20.6576
  0
LINE
  8
LAYER_1
 10
357.2985
 20
-20.6576
 11
359.1384
 21
-20.6576
  0
ARC
  8
LAYER_1
 10
352.8106
 20
-17.3096
 40
7.1589
 50
320.090402
 51
332.1165604
  0
ARC
  8
LAYER_1
 10
354.1771
 20
-18.4889
 40
5.3542
 50
306.7900371
 51
320.388939
  0
ARC
  8
LAYER_1
 10
355.319
 20
-19.9296
 40
3.517
 50
299.7830125
 51
305.949067
  0
ARC
  8
LAYER_1
 10
357.3195
 20
-22.9417
 40
0.2568
 50
189.0334679
 51
222.7018683
  0
ARC
  8
LAYER_1
 10
349.0955
 20
-31.2358
 40
11.4237
 50
41.87924042
 51
45.29994199
  0
ARC
  8
LAYER_1
 10
356.4378
 20
-24.3822
 40
1.3963
 50
27.03581007
 51
33.58660137
  0
ARC
  8
LAYER_1
 10
357.1615
 20
-22.7438
 40
1.1304
 50
297.3892127
 51
310.3878745
  0
ARC
  8
LAYER_1
 10
353.9762
 20
-18.4423
 40
6.4808
 50
307.1941606
 51
316.157217
  0
LINE
  8
LAYER_1
 10
358.6504
 20
-22.9314
 11
358.6504
 21
-23.6463
  0
LINE
  8
LAYER_1
 10
358.6504
 20
-23.6463
 11
359.664
 21
-23.6463
  0
LINE
  8
LAYER_1
 10
359.664
 20
-23.6463
 11
359.664
 21
-24.6876
  0
LINE
  8
LAYER_1
 10
359.664
 20
-24.6876
 11
360.6104
 21
-24.6876
  0
LINE
  8
LAYER_1
 10
360.6104
 20
-24.6876
 11
360.6104
 21
-23.6463
  0
LINE
  8
LAYER_1
 10
360.6104
 20
-23.6463
 11
361.5865
 21
-23.6463
  0
LINE
  8
LAYER_1
 10
361.5865
 20
-23.6463
 11
361.5865
 21
-22.8527
  0
ARC
  8
LAYER_1
 10
367.4456
 20
-17.4235
 40
7.9878
 50
222.8193225
 51
229.3988578
  0
ARC
  8
LAYER_1
 10
363.292
 20
-22.3337
 40
1.5572
 50
227.8567087
 51
243.3220042
  0
ARC
  8
LAYER_1
 10
365.2853
 20
-25.2871
 40
3.1127
 50
130.021284
 51
149.8796157
  0
ARC
  8
LAYER_1
 10
366.6645
 20
-17.3886
 40
6.4686
 50
224.4805238
 51
238.4889517
  0
ARC
  8
LAYER_1
 10
366.2036
 20
-18.0408
 40
5.6846
 50
209.4849127
 51
223.0453232
  0
ARC
  8
LAYER_1
 10
368.6448
 20
-16.4657
 40
8.5866
 50
209.221804
 51
210.6164087
  0
LINE
  8
LAYER_1
 10
359.664
 20
-22.7289
 11
358.8305
 21
-22.7289
  0
ARC
  8
LAYER_1
 10
349.8511
 20
-15.6241
 40
11.4503
 50
321.6476407
 51
327.3808252
  0
ARC
  8
LAYER_1
 10
358.6925
 20
-21.2021
 40
0.9989
 50
323.4909871
 51
346.5621015
  0
LINE
  8
LAYER_1
 10
359.664
 20
-21.4342
 11
359.664
 21
-22.7289
  0
LINE
  8
LAYER_1
 10
360.6104
 20
-22.7289
 11
360.6029
 21
-21.4287
  0
ARC
  8
LAYER_1
 10
362.6273
 20
-20.5905
 40
2.1911
 50
202.4906272
 51
213.3800963
  0
ARC
  8
LAYER_1
 10
369.8191
 20
-15.9672
 40
10.7407
 50
212.8670743
 51
219.0164701
  0
LINE
  8
LAYER_1
 10
361.474
 20
-22.7289
 11
360.6104
 21
-22.7289
  0
ENDBLK
  0
BLOCK
  8
LAYER_1
  2
AIGNBL01020006
 70
64
 10
0
 20
0
 30
0
  3
AIGNBL01020006
  0
LINE
  8
LAYER_1
 10
364.3358
 20
-22.0502
 11
364.3358
 21
-24.7051
  0
LINE
  8
LAYER_1
 10
364.3358
 20
-24.7051
 11
365.2338
 21
-24.7051
  0
LINE
  8
LAYER_1
 10
365.2338
 20
-24.7051
 11
365.2338
 21
-24.5221
  0
LINE
  8
LAYER_1
 10
365.2338
 20
-24.5221
 11
367.9602
 21
-24.5221
  0
LINE
  8
LAYER_1
 10
367.9602
 20
-24.5221
 11
367.9602
 21
-24.653
  0
LINE
  8
LAYER_1
 10
367.9602
 20
-24.653
 11
368.9036
 21
-24.653
  0
LINE
  8
LAYER_1
 10
368.9036
 20
-24.653
 11
368.9036
 21
-22.0502
  0
LINE
  8
LAYER_1
 10
368.9036
 20
-22.0502
 11
364.3358
 21
-22.0502
  0
LINE
  8
LAYER_1
 10
365.2338
 20
-22.5871
 11
366.132
 21
-22.5871
  0
LINE
  8
LAYER_1
 10
366.132
 20
-22.5871
 11
366.132
 21
-23.0127
  0
LINE
  8
LAYER_1
 10
366.132
 20
-23.0127
 11
365.2338
 21
-23.0127
  0
LINE
  8
LAYER_1
 10
365.2338
 20
-23.0127
 11
365.2338
 21
-22.5871
  0
LINE
  8
LAYER_1
 10
366.1383
 20
-23.9775
 11
365.2273
 21
-23.9775
  0
LINE
  8
LAYER_1
 10
365.2273
 20
-23.9775
 11
365.2273
 21
-23.5714
  0
LINE
  8
LAYER_1
 10
365.2273
 20
-23.5714
 11
366.1383
 21
-23.5714
  0
LINE
  8
LAYER_1
 10
366.1383
 20
-23.5714
 11
366.1383
 21
-23.9775
  0
LINE
  8
LAYER_1
 10
367.9602
 20
-23.9775
 11
367.0494
 21
-23.9775
  0
LINE
  8
LAYER_1
 10
367.0494
 20
-23.9775
 11
367.0494
 21
-23.5714
  0
LINE
  8
LAYER_1
 10
367.0494
 20
-23.5714
 11
367.9602
 21
-23.5714
  0
LINE
  8
LAYER_1
 10
367.9602
 20
-23.5714
 11
367.9602
 21
-23.9775
  0
LINE
  8
LAYER_1
 10
367.9602
 20
-22.9955
 11
367.0494
 21
-22.9955
  0
LINE
  8
LAYER_1
 10
367.0494
 20
-22.9955
 11
367.0494
 21
-22.5895
  0
LINE
  8
LAYER_1
 10
367.0494
 20
-22.5895
 11
367.9602
 21
-22.5895
  0
LINE
  8
LAYER_1
 10
367.9602
 20
-22.5895
 11
367.9602
 21
-22.9955
  0
ENDBLK
  0
BLOCK
  8
LAYER_1
  2
AIGNBL01020007
 70
64
 10
0
 20
0
 30
0
  3
AIGNBL01020007
  0
LINE
  8
LAYER_1
 10
372.7281
 20
-19.4737
 11
372.7281
 21
-18.6171
  0
LINE
  8
LAYER_1
 10
372.7281
 20
-18.6171
 11
370.079
 21
-18.6171
  0
LINE
  8
LAYER_1
 10
370.079
 20
-18.6171
 11
370.079
 21
-19.4737
  0
LINE
  8
LAYER_1
 10
370.079
 20
-19.4737
 11
370.7705
 21
-19.4737
  0
ARC
  8
LAYER_1
 10
356.4394
 20
-17.2645
 40
14.5003
 50
345.1348988
 51
351.2365365
  0
ARC
  8
LAYER_1
 10
366.7843
 20
-20.0377
 40
3.7903
 50
328.8624949
 51
345.5350072
  0
ARC
  8
LAYER_1
 10
368.3851
 20
-20.8832
 40
1.9856
 50
321.3970248
 51
325.858362
  0
ARC
  8
LAYER_1
 10
368.332
 20
-23.5053
 40
2.1187
 50
13.8393475
 51
40.75613321
  0
LINE
  8
LAYER_1
 10
370.3892
 20
-22.9985
 11
370.5443
 21
-22.7958
  0
LINE
  8
LAYER_1
 10
370.5443
 20
-22.7958
 11
370.5443
 21
-24.2866
  0
LINE
  8
LAYER_1
 10
370.5443
 20
-24.2866
 11
371.3519
 21
-24.2866
  0
LINE
  8
LAYER_1
 10
371.3519
 20
-24.2866
 11
371.3519
 21
-23.8159
  0
LINE
  8
LAYER_1
 10
371.3519
 20
-23.8159
 11
372.5861
 21
-23.8159
  0
LINE
  8
LAYER_1
 10
372.5861
 20
-23.8159
 11
372.5861
 21
-20.6966
  0
LINE
  8
LAYER_1
 10
372.5861
 20
-20.6966
 11
371.4229
 21
-20.6966
  0
ARC
  8
LAYER_1
 10
363.6549
 20
-18.5004
 40
8.0725
 50
344.2131719
 51
353.0750751
  0
LINE
  8
LAYER_1
 10
371.6685
 20
-19.4737
 11
372.7281
 21
-19.4737
  0
LINE
  8
LAYER_1
 10
371.7591
 20
-22.9919
 11
371.3519
 21
-22.9919
  0
LINE
  8
LAYER_1
 10
371.3519
 20
-22.9919
 11
371.3519
 21
-21.5204
  0
LINE
  8
LAYER_1
 10
371.3519
 20
-21.5204
 11
371.7591
 21
-21.5204
  0
LINE
  8
LAYER_1
 10
371.7591
 20
-21.5204
 11
371.7591
 21
-22.9919
  0
ENDBLK
  0
BLOCK
  8
LAYER_1
  2
AIGNBL01020008
 70
64
 10
0
 20
0
 30
0
  3
AIGNBL01020008
  0
LINE
  8
LAYER_1
 10
375.5404
 20
-21.0627
 11
375.5404
 21
-19.4932
  0
LINE
  8
LAYER_1
 10
375.5404
 20
-19.4932
 11
376.0444
 21
-19.4932
  0
LINE
  8
LAYER_1
 10
376.0444
 20
-19.4932
 11
376.0444
 21
-18.6171
  0
LINE
  8
LAYER_1
 10
376.0444
 20
-18.6171
 11
372.8461
 21
-18.6171
  0
LINE
  8
LAYER_1
 10
372.8461
 20
-18.6171
 11
372.8461
 21
-19.4932
  0
LINE
  8
LAYER_1
 10
372.8461
 20
-19.4932
 11
373.2791
 21
-19.4932
  0
LINE
  8
LAYER_1
 10
373.2791
 20
-19.4932
 11
373.2791
 21
-21.0627
  0
LINE
  8
LAYER_1
 10
373.2791
 20
-21.0627
 11
372.6846
 21
-21.0627
  0
LINE
  8
LAYER_1
 10
372.6846
 20
-21.0627
 11
372.6846
 21
-21.9587
  0
LINE
  8
LAYER_1
 10
372.6846
 20
-21.9587
 11
373.2531
 21
-21.9587
  0
ARC
  8
LAYER_1
 10
370.4737
 20
-21.9112
 40
2.7798
 50
338.6740849
 51
359.0208722
  0
ARC
  8
LAYER_1
 10
370.197
 20
-21.8534
 40
3.0589
 50
321.0689524
 51
339.549872
  0
ARC
  8
LAYER_1
 10
370.427
 20
-22.02
 40
2.7754
 50
312.3624439
 51
320.7607289
  0
ARC
  8
LAYER_1
 10
369.8629
 20
-28.2378
 40
4.8259
 50
49.02881337
 51
59.70897779
  0
ARC
  8
LAYER_1
 10
371.585
 20
-22.7924
 40
2.3077
 50
308.6769781
 51
331.7359461
  0
ARC
  8
LAYER_1
 10
370.2911
 20
-22.0399
 40
3.804
 50
330.9823082
 51
347.5186075
  0
ARC
  8
LAYER_1
 10
369.0033
 20
-21.6627
 40
5.1437
 50
346.5157532
 51
356.7008657
  0
LINE
  8
LAYER_1
 10
374.1385
 20
-21.9587
 11
374.6488
 21
-21.9587
  0
LINE
  8
LAYER_1
 10
374.6488
 20
-21.9587
 11
374.6488
 21
-24.5744
  0
LINE
  8
LAYER_1
 10
374.6488
 20
-24.5744
 11
375.5404
 21
-24.5744
  0
LINE
  8
LAYER_1
 10
375.5404
 20
-24.5744
 11
375.5404
 21
-21.9587
  0
LINE
  8
LAYER_1
 10
375.5404
 20
-21.9587
 11
376.122
 21
-21.9587
  0
LINE
  8
LAYER_1
 10
376.122
 20
-21.9587
 11
376.122
 21
-21.0627
  0
LINE
  8
LAYER_1
 10
376.122
 20
-21.0627
 11
375.5404
 21
-21.0627
  0
LINE
  8
LAYER_1
 10
374.6488
 20
-21.0627
 11
374.1578
 21
-21.0627
  0
LINE
  8
LAYER_1
 10
374.1578
 20
-21.0627
 11
374.1578
 21
-19.4932
  0
LINE
  8
LAYER_1
 10
374.1578
 20
-19.4932
 11
374.6488
 21
-19.4932
  0
LINE
  8
LAYER_1
 10
374.6488
 20
-19.4932
 11
374.6488
 21
-21.0627
  0
ENDBLK
  0
BLOCK
  8
LAYER_1
  2
AIGNBL01020009
 70
64
 10
0
 20
0
 30
0
  3
AIGNBL01020009
  0
ARC
  8
LAYER_1
 10
348.7309
 20
-19.7029
 40
1.9539
 50
288.5756585
 51
313.5596462
  0
ARC
  8
LAYER_1
 10
349.2487
 20
-20.3423
 40
1.1356
 50
316.8583927
 51
347.2206608
  0
ARC
  8
LAYER_1
 10
348.4156
 20
-20.1397
 40
1.9929
 50
346.8393421
 51
1.02155035
  0
ARC
  8
LAYER_1
 10
349.1498
 20
-20.1072
 40
1.2584
 50
0.1386853402
 51
45.46971045
  0
ARC
  8
LAYER_1
 10
348.6205
 20
-20.6065
 40
1.9857
 50
44.68315197
 51
67.7181178
  0
ARC
  8
LAYER_1
 10
348.3585
 20
-21.0893
 40
2.5325
 50
66.37472265
 51
86.05352033
  0
ARC
  8
LAYER_1
 10
348.4626
 20
-20.2979
 40
1.7365
 50
87.68409707
 51
89.78891076
  0
LINE
  8
LAYER_1
 10
348.469
 20
-18.5614
 11
345.4981
 21
-18.5614
  0
LINE
  8
LAYER_1
 10
345.4981
 20
-18.5614
 11
345.4981
 21
-21.8229
  0
LINE
  8
LAYER_1
 10
345.4981
 20
-21.8229
 11
347.2612
 21
-21.8229
  0
ARC
  8
LAYER_1
 10
347.2871
 20
-23.4608
 40
1.6381
 50
64.35413448
 51
90.90612544
  0
ARC
  8
LAYER_1
 10
347.4879
 20
-22.9613
 40
1.1015
 50
16.86046428
 51
62.52578605
  0
ARC
  8
LAYER_1
 10
347.6674
 20
-22.8924
 40
0.9099
 50
0.3654786408
 51
15.98433816
  0
LINE
  8
LAYER_1
 10
348.5772
 20
-22.8866
 11
348.5772
 21
-24.6193
  0
LINE
  8
LAYER_1
 10
348.5772
 20
-24.6193
 11
350.1217
 21
-24.6193
  0
LINE
  8
LAYER_1
 10
350.1217
 20
-24.6193
 11
350.1217
 21
-22.7905
  0
ARC
  8
LAYER_1
 10
348.0723
 20
-22.7474
 40
2.0498
 50
358.7954297
 51
12.52019839
  0
ARC
  8
LAYER_1
 10
349.1245
 20
-22.5086
 40
0.971
 50
12.22222576
 51
45.00857478
  0
ARC
  8
LAYER_1
 10
348.9465
 20
-22.7782
 40
1.2891
 50
47.88881808
 51
71.60430132
  0
LINE
  8
LAYER_1
 10
348.2788
 20
-20.7712
 11
347.0408
 21
-20.7712
  0
LINE
  8
LAYER_1
 10
347.0408
 20
-20.7712
 11
347.0408
 21
-19.6173
  0
LINE
  8
LAYER_1
 10
347.0408
 20
-19.6173
 11
347.0768
 21
-19.6173
  0
LINE
  8
LAYER_1
 10
347.0768
 20
-19.6173
 11
348.3108
 21
-19.6173
  0
ARC
  8
LAYER_1
 10
348.27
 20
-20.2806
 40
0.6645
 50
46.60866758
 51
86.48378525
  0
ARC
  8
LAYER_1
 10
348.3361
 20
-20.1655
 40
0.5364
 50
356.9381223
 51
43.29359479
  0
ARC
  8
LAYER_1
 10
348.3265
 20
-20.1929
 40
0.5453
 50
290.0148134
 51
359.8586292
  0
ARC
  8
LAYER_1
 10
348.1501
 20
-19.8655
 40
0.9148
 50
278.085377
 51
293.3808036
  0
ENDBLK
  0
BLOCK
  8
LAYER_1
  2
AIGNBL0102000B
 70
64
 10
0
 20
0
 30
0
  3
AIGNBL0102000B
  0
LINE
  8
LAYER_1
 10
411.5938
 20
-23.8484
 11
411.5938
 21
-20.8746
  0
LINE
  8
LAYER_1
 10
411.5938
 20
-20.8746
 11
411.905
 21
-20.8746
  0
LINE
  8
LAYER_1
 10
411.905
 20
-20.8746
 11
411.905
 21
-24.3679
  0
LINE
  8
LAYER_1
 10
411.905
 20
-24.3679
 11
411.5717
 21
-24.3679
  0
LINE
  8
LAYER_1
 10
411.5717
 20
-24.3679
 11
409.5951
 21
-21.2508
  0
LINE
  8
LAYER_1
 10
409.5951
 20
-21.2508
 11
409.5951
 21
-24.3679
  0
LINE
  8
LAYER_1
 10
409.5951
 20
-24.3679
 11
409.2842
 21
-24.3679
  0
LINE
  8
LAYER_1
 10
409.2842
 20
-24.3679
 11
409.2842
 21
-20.8746
  0
LINE
  8
LAYER_1
 10
409.2842
 20
-20.8746
 11
409.6838
 21
-20.8746
  0
LINE
  8
LAYER_1
 10
409.6838
 20
-20.8746
 11
411.5938
 21
-23.8484
  0
ENDBLK
  0
BLOCK
  8
LAYER_1
  2
AIGNBL0102000C
 70
64
 10
0
 20
0
 30
0
  3
AIGNBL0102000C
  0
LINE
  8
LAYER_1
 10
412.9487
 20
-21.2508
 11
412.5937
 21
-21.2508
  0
LINE
  8
LAYER_1
 10
412.5937
 20
-21.2508
 11
412.5937
 21
-20.8746
  0
LINE
  8
LAYER_1
 10
412.5937
 20
-20.8746
 11
412.9487
 21
-20.8746
  0
LINE
  8
LAYER_1
 10
412.9487
 20
-20.8746
 11
412.9487
 21
-21.2508
  0
LINE
  8
LAYER_1
 10
412.9266
 20
-24.3679
 11
412.6158
 21
-24.3679
  0
LINE
  8
LAYER_1
 10
412.6158
 20
-24.3679
 11
412.6158
 21
-21.9136
  0
LINE
  8
LAYER_1
 10
412.6158
 20
-21.9136
 11
412.9266
 21
-21.9136
  0
LINE
  8
LAYER_1
 10
412.9266
 20
-21.9136
 11
412.9266
 21
-24.3679
  0
ENDBLK
  0
BLOCK
  8
LAYER_1
  2
AIGNBL0102000D
 70
64
 10
0
 20
0
 30
0
  3
AIGNBL0102000D
  0
LINE
  8
LAYER_1
 10
413.9482
 20
-24.3679
 11
413.6374
 21
-24.3679
  0
LINE
  8
LAYER_1
 10
413.6374
 20
-24.3679
 11
413.6374
 21
-20.8746
  0
LINE
  8
LAYER_1
 10
413.6374
 20
-20.8746
 11
413.9482
 21
-20.8746
  0
LINE
  8
LAYER_1
 10
413.9482
 20
-20.8746
 11
413.9482
 21
-22.4152
  0
ARC
  8
LAYER_1
 10
414.9673
 20
-23.0387
 40
1.1947
 50
129.0328281
 51
148.5393959
  0
ARC
  8
LAYER_1
 10
414.7747
 20
-22.8133
 40
0.8984
 50
91.65079798
 51
128.5451202
  0
ARC
  8
LAYER_1
 10
414.8118
 20
-23.0538
 40
1.1402
 50
89.86186398
 51
93.16396332
  0
ARC
  8
LAYER_1
 10
414.8501
 20
-22.8272
 40
0.9142
 50
55.37843322
 51
92.22964094
  0
ARC
  8
LAYER_1
 10
414.9165
 20
-22.6059
 40
0.6981
 50
7.404119548
 51
49.53910649
  0
ARC
  8
LAYER_1
 10
414.0039
 20
-22.8138
 40
1.6323
 50
359.5287787
 51
10.51193458
  0
LINE
  8
LAYER_1
 10
415.6361
 20
-22.8272
 11
415.6361
 21
-24.3679
  0
LINE
  8
LAYER_1
 10
415.6361
 20
-24.3679
 11
415.3253
 21
-24.3679
  0
LINE
  8
LAYER_1
 10
415.3253
 20
-24.3679
 11
415.3253
 21
-22.8631
  0
ARC
  8
LAYER_1
 10
414.1911
 20
-22.8231
 40
1.1349
 50
357.9789105
 51
16.98197242
  0
ARC
  8
LAYER_1
 10
414.8605
 20
-22.6156
 40
0.4341
 50
16.59677351
 51
48.63125212
  0
ARC
  8
LAYER_1
 10
414.7769
 20
-22.7711
 40
0.6074
 50
52.41132045
 51
92.74352394
  0
ARC
  8
LAYER_1
 10
414.7481
 20
-22.8579
 40
0.6935
 50
90.02758188
 51
129.8640462
  0
ARC
  8
LAYER_1
 10
414.8808
 20
-23.0631
 40
0.9365
 50
128.0467338
 51
164.2262689
  0
ARC
  8
LAYER_1
 10
414.9361
 20
-23.0554
 40
0.9879
 50
165.5296484
 51
180.2726432
  0
LINE
  8
LAYER_1
 10
413.9482
 20
-23.0601
 11
413.9482
 21
-24.3679
  0
ENDBLK
  0
BLOCK
  8
LAYER_1
  2
AIGNBL0102000E
 70
64
 10
0
 20
0
 30
0
  3
AIGNBL0102000E
  0
ARC
  8
LAYER_1
 10
417.4609
 20
-23.0998
 40
1.1862
 50
50.66677427
 51
90.17171201
  0
ARC
  8
LAYER_1
 10
417.6052
 20
-22.9242
 40
0.9589
 50
14.7581653
 51
50.68787895
  0
ARC
  8
LAYER_1
 10
416.9926
 20
-23.106
 40
1.5977
 50
359.0739805
 51
15.46539664
  0
ARC
  8
LAYER_1
 10
417.1012
 20
-23.1699
 40
1.4894
 50
332.934773
 51
1.464715845
  0
ARC
  8
LAYER_1
 10
417.6442
 20
-23.3965
 40
0.9039
 50
308.9731167
 51
330.0629762
  0
ARC
  8
LAYER_1
 10
417.4582
 20
-23.1743
 40
1.1936
 50
269.9562788
 51
309.2052349
  0
ARC
  8
LAYER_1
 10
417.4535
 20
-23.1836
 40
1.1844
 50
230.6348894
 51
270.1844284
  0
ARC
  8
LAYER_1
 10
417.3032
 20
-23.3645
 40
0.9491
 50
194.5638459
 51
230.717391
  0
ARC
  8
LAYER_1
 10
417.9846
 20
-23.1607
 40
1.6601
 50
179.0015303
 51
195.4587807
  0
ARC
  8
LAYER_1
 10
417.7589
 20
-23.0958
 40
1.4345
 50
152.4352517
 51
181.4366148
  0
ARC
  8
LAYER_1
 10
417.276
 20
-22.894
 40
0.9142
 50
128.8709262
 51
149.6419077
  0
ARC
  8
LAYER_1
 10
417.4563
 20
-23.1059
 40
1.1923
 50
89.95302455
 51
129.2276577
  0
ARC
  8
LAYER_1
 10
417.427
 20
-22.9353
 40
0.7484
 50
129.941227
 51
170.5112719
  0
ARC
  8
LAYER_1
 10
418.1793
 20
-23.1184
 40
1.5217
 50
168.3809413
 51
180.5052149
  0
ARC
  8
LAYER_1
 10
417.8694
 20
-23.1767
 40
1.2125
 50
177.8795135
 51
209.7652959
  0
ARC
  8
LAYER_1
 10
417.3519
 20
-23.4181
 40
0.6452
 50
213.9717645
 51
231.0723404
  0
ARC
  8
LAYER_1
 10
417.4502
 20
-23.3019
 40
0.7974
 50
230.8249409
 51
270.5110491
  0
ARC
  8
LAYER_1
 10
417.4629
 20
-23.2975
 40
0.8017
 50
269.6008139
 51
309.0631962
  0
ARC
  8
LAYER_1
 10
417.4887
 20
-23.3495
 40
0.7452
 50
310.0430385
 51
350.8041923
  0
ARC
  8
LAYER_1
 10
416.6667
 20
-23.1478
 40
1.5903
 50
348.3604548
 51
0.5752092068
  0
ARC
  8
LAYER_1
 10
417.0957
 20
-23.0901
 40
1.1619
 50
357.9411261
 51
30.4135778
  0
ARC
  8
LAYER_1
 10
417.5531
 20
-22.875
 40
0.6602
 50
34.41537859
 51
51.05519408
  0
ARC
  8
LAYER_1
 10
417.463
 20
-22.9836
 40
0.8013
 50
50.92748548
 51
90.40850442
  0
ARC
  8
LAYER_1
 10
417.4521
 20
-22.9852
 40
0.8029
 50
89.63079039
 51
129.0332197
  0
ENDBLK
  0
BLOCK
  8
LAYER_1
  2
AIGNBL0102000F
 70
64
 10
0
 20
0
 30
0
  3
AIGNBL0102000F
  0
ARC
  8
LAYER_1
 10
420.5881
 20
-22.59
 40
0.6528
 50
6.066193067
 51
49.62996607
  0
ARC
  8
LAYER_1
 10
419.8154
 20
-22.75
 40
1.4401
 50
359.7756232
 51
9.146367368
  0
LINE
  8
LAYER_1
 10
421.2555
 20
-22.7556
 11
421.2555
 21
-24.3679
  0
LINE
  8
LAYER_1
 10
421.2555
 20
-24.3679
 11
420.9446
 21
-24.3679
  0
LINE
  8
LAYER_1
 10
420.9446
 20
-24.3679
 11
420.9446
 21
-22.7914
  0
ARC
  8
LAYER_1
 10
420.0849
 20
-22.7623
 40
0.8602
 50
358.0627892
 51
19.48702453
  0
ARC
  8
LAYER_1
 10
420.4882
 20
-22.6213
 40
0.4329
 50
19.69341995
 51
49.96487887
  0
ARC
  8
LAYER_1
 10
420.4331
 20
-22.7448
 40
0.5642
 50
53.74913583
 51
94.46032741
  0
ARC
  8
LAYER_1
 10
420.3896
 20
-22.8758
 40
0.6935
 50
90.03590281
 51
129.8639993
  0
ARC
  8
LAYER_1
 10
420.6486
 20
-23.206
 40
1.113
 50
129.200678
 51
162.0560277
  0
LINE
  8
LAYER_1
 10
419.5897
 20
-22.8631
 11
419.5897
 21
-24.3679
  0
LINE
  8
LAYER_1
 10
419.5897
 20
-24.3679
 11
419.2788
 21
-24.3679
  0
LINE
  8
LAYER_1
 10
419.2788
 20
-24.3679
 11
419.2788
 21
-21.9136
  0
LINE
  8
LAYER_1
 10
419.2788
 20
-21.9136
 11
419.5897
 21
-21.9136
  0
LINE
  8
LAYER_1
 10
419.5897
 20
-21.9136
 11
419.5897
 21
-22.4152
  0
ARC
  8
LAYER_1
 10
420.5074
 20
-23.0039
 40
1.0903
 50
128.1496285
 51
147.3199772
  0
ARC
  8
LAYER_1
 10
420.4823
 20
-22.9251
 40
1.0132
 50
94.71600563
 51
129.7843011
  0
ARC
  8
LAYER_1
 10
420.4552
 20
-22.832
 40
0.9184
 50
89.95857338
 51
93.51287669
  0
ARC
  8
LAYER_1
 10
420.4753
 20
-22.805
 40
0.8917
 50
53.9196421
 51
91.2469403
  0
ARC
  8
LAYER_1
 10
420.5269
 20
-22.6943
 40
0.7721
 50
51.1823524
 51
52.17362777
  0
ENDBLK
  0
BLOCK
  8
LAYER_1
  2
AIGNBL01020010
 70
64
 10
0
 20
0
 30
0
  3
AIGNBL01020010
  0
LINE
  8
LAYER_1
 10
424.742
 20
-24.3679
 11
424.3645
 21
-24.3679
  0
LINE
  8
LAYER_1
 10
424.3645
 20
-24.3679
 11
423.2096
 21
-22.7556
  0
LINE
  8
LAYER_1
 10
423.2096
 20
-22.7556
 11
422.2546
 21
-22.7556
  0
LINE
  8
LAYER_1
 10
422.2546
 20
-22.7556
 11
422.2546
 21
-24.3679
  0
LINE
  8
LAYER_1
 10
422.2546
 20
-24.3679
 11
421.9438
 21
-24.3679
  0
LINE
  8
LAYER_1
 10
421.9438
 20
-24.3679
 11
421.9438
 21
-20.8746
  0
LINE
  8
LAYER_1
 10
421.9438
 20
-20.8746
 11
423.3429
 21
-20.8746
  0
ARC
  8
LAYER_1
 10
423.3915
 20
-22.5861
 40
1.7122
 50
64.78634393
 51
91.62619302
  0
ARC
  8
LAYER_1
 10
423.6954
 20
-21.8181
 40
0.8895
 50
51.15329891
 51
61.42266901
  0
ARC
  8
LAYER_1
 10
423.7275
 20
-21.7773
 40
0.8375
 50
358.0285714
 51
51.10895389
  0
ARC
  8
LAYER_1
 10
423.6821
 20
-21.823
 40
0.8826
 50
324.0538843
 51
1.095358491
  0
ARC
  8
LAYER_1
 10
423.7138
 20
-21.8135
 40
0.8629
 50
308.7017291
 51
322.3098272
  0
ARC
  8
LAYER_1
 10
423.636
 20
-21.6963
 40
1.0031
 50
290.1144101
 51
307.9832712
  0
ARC
  8
LAYER_1
 10
423.3643
 20
-20.9377
 40
1.8088
 50
275.667509
 51
289.9328649
  0
LINE
  8
LAYER_1
 10
423.5429
 20
-22.7377
 11
424.742
 21
-24.3679
  0
LINE
  8
LAYER_1
 10
422.2546
 20
-21.1433
 11
422.2546
 21
-22.4869
  0
LINE
  8
LAYER_1
 10
422.2546
 20
-22.4869
 11
423.2542
 21
-22.4869
  0
ARC
  8
LAYER_1
 10
423.2896
 20
-20.7791
 40
1.7082
 50
268.8140544
 51
283.8362217
  0
ARC
  8
LAYER_1
 10
423.5032
 20
-21.627
 40
0.8338
 50
283.5126132
 51
307.3500636
  0
ARC
  8
LAYER_1
 10
423.6363
 20
-21.8258
 40
0.5952
 50
308.7770129
 51
1.89675522
  0
ARC
  8
LAYER_1
 10
423.6194
 20
-21.7942
 40
0.6119
 50
358.8818024
 51
50.44442945
  0
ARC
  8
LAYER_1
 10
423.5598
 20
-21.9017
 40
0.7331
 50
52.20637191
 51
73.15795036
  0
ARC
  8
LAYER_1
 10
423.3779
 20
-22.5307
 40
1.3879
 50
73.49402473
 51
91.4460571
  0
LINE
  8
LAYER_1
 10
423.3429
 20
-21.1433
 11
422.2546
 21
-21.1433
  0
ENDBLK
  0
BLOCK
  8
LAYER_1
  2
AIGNBL01020011
 70
64
 10
0
 20
0
 30
0
  3
AIGNBL01020011
  0
ARC
  8
LAYER_1
 10
426.5822
 20
-22.6177
 40
0.6477
 50
358.8953531
 51
51.5122055
  0
LINE
  8
LAYER_1
 10
427.2298
 20
-22.6302
 11
427.2298
 21
-23.8484
  0
ARC
  8
LAYER_1
 10
428.2683
 20
-23.8588
 40
1.0385
 50
179.4270287
 51
209.3553955
  0
LINE
  8
LAYER_1
 10
427.3631
 20
-24.3679
 11
427.0298
 21
-24.3679
  0
ARC
  8
LAYER_1
 10
427.6303
 20
-23.9859
 40
0.7117
 50
181.906482
 51
212.4607174
  0
ARC
  8
LAYER_1
 10
426.2619
 20
-23.4446
 40
0.8666
 50
307.189829
 51
319.3119411
  0
ARC
  8
LAYER_1
 10
426.13
 20
-23.3137
 40
1.0509
 50
274.3504506
 51
308.6050919
  0
ARC
  8
LAYER_1
 10
426.0814
 20
-23.0542
 40
1.3137
 50
269.7153606
 51
275.6028137
  0
ARC
  8
LAYER_1
 10
426.051
 20
-23.3535
 40
1.0147
 50
236.2903294
 51
271.3514804
  0
ARC
  8
LAYER_1
 10
425.9717
 20
-23.5279
 40
0.8262
 50
231.0915336
 51
234.1508653
  0
ARC
  8
LAYER_1
 10
425.7859
 20
-23.7549
 40
0.5329
 50
178.4986863
 51
231.3116344
  0
ARC
  8
LAYER_1
 10
425.7888
 20
-23.7452
 40
0.5357
 50
125.8271978
 51
179.5390433
  0
ARC
  8
LAYER_1
 10
426.2721
 20
-24.376
 40
1.3302
 50
111.9683279
 51
126.8010416
  0
ARC
  8
LAYER_1
 10
427.1868
 20
-26.5581
 40
3.6961
 50
106.0708689
 51
112.4634395
  0
ARC
  8
LAYER_1
 10
425.1276
 20
-19.137
 40
4.0057
 50
284.9887474
 51
296.5649077
  0
ARC
  8
LAYER_1
 10
426.3839
 20
-22.6866
 40
0.5361
 50
356.4479126
 51
44.97164605
  0
ARC
  8
LAYER_1
 10
426.3459
 20
-22.8411
 40
0.6772
 50
51.96319352
 51
92.26961274
  0
ARC
  8
LAYER_1
 10
426.3095
 20
-22.8294
 40
0.6651
 50
89.1726404
 51
128.3313414
  0
ARC
  8
LAYER_1
 10
426.2655
 20
-22.7477
 40
0.5739
 50
129.9435942
 51
171.8142261
  0
LINE
  8
LAYER_1
 10
425.6974
 20
-22.666
 11
425.342
 21
-22.666
  0
ARC
  8
LAYER_1
 10
426.1739
 20
-22.7873
 40
0.8407
 50
126.4109837
 51
171.7039985
  0
ARC
  8
LAYER_1
 10
426.2404
 20
-22.8382
 40
0.9215
 50
91.53634868
 51
127.8595442
  0
ARC
  8
LAYER_1
 10
426.3131
 20
-23.271
 40
1.3574
 50
89.74504012
 51
94.11220953
  0
ARC
  8
LAYER_1
 10
426.3538
 20
-23.0427
 40
1.1296
 50
58.6194476
 51
91.75785475
  0
ARC
  8
LAYER_1
 10
426.5007
 20
-22.7136
 40
0.7735
 50
51.21066166
 51
55.21930848
  0
ARC
  8
LAYER_1
 10
425.8499
 20
-20.8738
 40
2.3856
 50
282.4346248
 51
296.6244974
  0
ARC
  8
LAYER_1
 10
426.6835
 20
-24.8935
 40
1.7201
 50
100.7186377
 51
123.201468
  0
ARC
  8
LAYER_1
 10
425.9648
 20
-23.7606
 40
0.3791
 50
126.0646439
 51
177.0173138
  0
ARC
  8
LAYER_1
 10
425.9012
 20
-23.7343
 40
0.3151
 50
181.2008166
 51
234.780401
  0
ARC
  8
LAYER_1
 10
426.0531
 20
-23.5367
 40
0.5642
 50
233.7498652
 51
274.4595981
  0
ARC
  8
LAYER_1
 10
426.1259
 20
-23.2323
 40
0.8673
 50
268.0933954
 51
305.5631596
  0
ARC
  8
LAYER_1
 10
425.5896
 20
-22.6009
 40
1.6943
 50
307.8958858
 51
321.685826
  0
LINE
  8
LAYER_1
 10
426.919
 20
-23.6513
 11
426.919
 21
-23.0064
  0
ENDBLK
  0
BLOCK
  8
LAYER_1
  2
AIGNBL01020012
 70
64
 10
0
 20
0
 30
0
  3
AIGNBL01020012
  0
LINE
  8
LAYER_1
 10
428.4069
 20
-21.2508
 11
428.0518
 21
-21.2508
  0
LINE
  8
LAYER_1
 10
428.0518
 20
-21.2508
 11
428.0518
 21
-20.8746
  0
LINE
  8
LAYER_1
 10
428.0518
 20
-20.8746
 11
428.4069
 21
-20.8746
  0
LINE
  8
LAYER_1
 10
428.4069
 20
-20.8746
 11
428.4069
 21
-21.2508
  0
LINE
  8
LAYER_1
 10
428.3848
 20
-24.3679
 11
428.0739
 21
-24.3679
  0
LINE
  8
LAYER_1
 10
428.0739
 20
-24.3679
 11
428.0739
 21
-21.9136
  0
LINE
  8
LAYER_1
 10
428.0739
 20
-21.9136
 11
428.3848
 21
-21.9136
  0
LINE
  8
LAYER_1
 10
428.3848
 20
-21.9136
 11
428.3848
 21
-24.3679
  0
ENDBLK
  0
BLOCK
  8
LAYER_1
  2
AIGNBL01020013
 70
64
 10
0
 20
0
 30
0
  3
AIGNBL01020013
  0
LINE
  8
LAYER_1
 10
429.4064
 20
-23.078
 11
430.7168
 21
-21.9136
  0
LINE
  8
LAYER_1
 10
430.7168
 20
-21.9136
 11
431.1164
 21
-21.9136
  0
LINE
  8
LAYER_1
 10
431.1164
 20
-21.9136
 11
430.1172
 21
-22.8272
  0
LINE
  8
LAYER_1
 10
430.1172
 20
-22.8272
 11
431.2722
 21
-24.3679
  0
LINE
  8
LAYER_1
 10
431.2722
 20
-24.3679
 11
430.8943
 21
-24.3679
  0
LINE
  8
LAYER_1
 10
430.8943
 20
-24.3679
 11
429.8951
 21
-23.0243
  0
LINE
  8
LAYER_1
 10
429.8951
 20
-23.0243
 11
429.4064
 21
-23.4363
  0
LINE
  8
LAYER_1
 10
429.4064
 20
-23.4363
 11
429.4064
 21
-24.3679
  0
LINE
  8
LAYER_1
 10
429.4064
 20
-24.3679
 11
429.0956
 21
-24.3679
  0
LINE
  8
LAYER_1
 10
429.0956
 20
-24.3679
 11
429.0956
 21
-20.8746
  0
LINE
  8
LAYER_1
 10
429.0956
 20
-20.8746
 11
429.4064
 21
-20.8746
  0
LINE
  8
LAYER_1
 10
429.4064
 20
-20.8746
 11
429.4064
 21
-23.078
  0
ENDBLK
  0
BLOCK
  8
LAYER_1
  2
AIGNBL01020014
 70
64
 10
0
 20
0
 30
0
  3
AIGNBL01020014
  0
ARC
  8
LAYER_1
 10
433.2373
 20
-22.8164
 40
0.8773
 50
12.60535839
 51
49.78015098
  0
ARC
  8
LAYER_1
 10
432.1278
 20
-23.1396
 40
2.032
 50
358.7043305
 51
14.67021056
  0
LINE
  8
LAYER_1
 10
434.1592
 20
-23.1855
 11
432.2934
 21
-23.1855
  0
ARC
  8
LAYER_1
 10
433.4585
 20
-23.1823
 40
1.1651
 50
180.1564368
 51
212.937591
  0
ARC
  8
LAYER_1
 10
432.9688
 20
-23.4418
 40
0.6149
 50
217.4609626
 51
231.0501281
  0
ARC
  8
LAYER_1
 10
433.0859
 20
-23.3019
 40
0.7974
 50
230.8249409
 51
270.5110491
  0
ARC
  8
LAYER_1
 10
433.0986
 20
-23.2975
 40
0.8017
 50
269.6008139
 51
309.0631962
  0
ARC
  8
LAYER_1
 10
433.244
 20
-23.4797
 40
0.5686
 50
309.2498475
 51
349.8779271
  0
LINE
  8
LAYER_1
 10
433.8038
 20
-23.5796
 11
434.1146
 21
-23.5796
  0
ARC
  8
LAYER_1
 10
433.294
 20
-23.4875
 40
0.8258
 50
314.9109041
 51
353.5950804
  0
ARC
  8
LAYER_1
 10
433.3408
 20
-23.5124
 40
0.7752
 50
308.7395833
 51
313.7628734
  0
ARC
  8
LAYER_1
 10
433.1139
 20
-23.2328
 40
1.1353
 50
268.9430762
 51
308.8390436
  0
ARC
  8
LAYER_1
 10
433.0753
 20
-23.141
 40
1.227
 50
239.2915575
 51
270.8243559
  0
ARC
  8
LAYER_1
 10
433.0258
 20
-23.2685
 40
1.0923
 50
230.9757754
 51
238.1127847
  0
ARC
  8
LAYER_1
 10
432.9372
 20
-23.387
 40
0.9445
 50
194.4648819
 51
230.6233388
  0
ARC
  8
LAYER_1
 10
433.672
 20
-23.1647
 40
1.7118
 50
178.8975076
 51
195.5256865
  0
ARC
  8
LAYER_1
 10
433.424
 20
-23.0969
 40
1.464
 50
152.2522295
 51
181.3642106
  0
ARC
  8
LAYER_1
 10
432.9746
 20
-22.9102
 40
0.9802
 50
128.8196472
 51
149.67893
  0
ARC
  8
LAYER_1
 10
433.0155
 20
-22.9744
 40
1.0559
 50
94.54633015
 51
128.3661435
  0
ARC
  8
LAYER_1
 10
433.0839
 20
-23.3208
 40
1.4073
 50
89.62772971
 51
96.20349867
  0
ARC
  8
LAYER_1
 10
433.1114
 20
-23.0754
 40
1.162
 50
58.69952131
 51
90.90490401
  0
ARC
  8
LAYER_1
 10
433.1682
 20
-22.9356
 40
1.0132
 50
51.14782851
 51
57.33687238
  0
ARC
  8
LAYER_1
 10
432.9327
 20
-22.9267
 40
0.8932
 50
0.6323163431
 51
37.95011538
  0
ARC
  8
LAYER_1
 10
433.2354
 20
-22.7517
 40
0.549
 50
42.98287442
 51
50.89905263
  0
ARC
  8
LAYER_1
 10
433.1173
 20
-22.9122
 40
0.7482
 50
51.62942978
 51
91.85980427
  0
ARC
  8
LAYER_1
 10
433.0707
 20
-22.9837
 40
0.8196
 50
88.44194211
 51
126.5877202
  0
ARC
  8
LAYER_1
 10
433.0757
 20
-22.9328
 40
0.7825
 50
129.1017402
 51
178.8274293
  0
LINE
  8
LAYER_1
 10
432.2934
 20
-22.9168
 11
433.8259
 21
-22.9168
  0
ENDBLK
  0
BLOCK
  8
LAYER_1
  2
AIGNBL01020015
 70
64
 10
0
 20
0
 30
0
  3
AIGNBL01020015
  0
ARC
  8
LAYER_1
 10
436.1575
 20
-22.5898
 40
0.6524
 50
6.052944294
 51
49.64662325
  0
ARC
  8
LAYER_1
 10
435.3833
 20
-22.7499
 40
1.4412
 50
359.7753414
 51
9.138735262
  0
LINE
  8
LAYER_1
 10
436.8245
 20
-22.7556
 11
436.8245
 21
-24.3679
  0
LINE
  8
LAYER_1
 10
436.8245
 20
-24.3679
 11
436.5136
 21
-24.3679
  0
LINE
  8
LAYER_1
 10
436.5136
 20
-24.3679
 11
436.5136
 21
-22.7914
  0
ARC
  8
LAYER_1
 10
435.6536
 20
-22.7623
 40
0.8605
 50
358.0648143
 51
19.47992018
  0
ARC
  8
LAYER_1
 10
436.0571
 20
-22.6212
 40
0.4331
 50
19.68415817
 51
49.93849285
  0
ARC
  8
LAYER_1
 10
436.002
 20
-22.7453
 40
0.5647
 50
53.76649242
 51
94.44297082
  0
ARC
  8
LAYER_1
 10
435.9587
 20
-22.876
 40
0.6937
 50
90.03109776
 51
129.8605303
  0
ARC
  8
LAYER_1
 10
436.2176
 20
-23.206
 40
1.113
 50
129.200678
 51
162.0560277
  0
LINE
  8
LAYER_1
 10
435.1587
 20
-22.8631
 11
435.1587
 21
-24.3679
  0
LINE
  8
LAYER_1
 10
435.1587
 20
-24.3679
 11
434.8479
 21
-24.3679
  0
LINE
  8
LAYER_1
 10
434.8479
 20
-24.3679
 11
434.8479
 21
-21.9136
  0
LINE
  8
LAYER_1
 10
434.8479
 20
-21.9136
 11
435.1587
 21
-21.9136
  0
LINE
  8
LAYER_1
 10
435.1587
 20
-21.9136
 11
435.1587
 21
-22.4152
  0
ARC
  8
LAYER_1
 10
436.0793
 20
-23.0065
 40
1.0941
 50
128.1836958
 51
147.2859099
  0
ARC
  8
LAYER_1
 10
436.0514
 20
-22.9256
 40
1.0137
 50
94.72376074
 51
129.776402
  0
ARC
  8
LAYER_1
 10
436.0242
 20
-22.8318
 40
0.9182
 50
89.95828009
 51
93.51329337
  0
ARC
  8
LAYER_1
 10
436.0443
 20
-22.805
 40
0.8916
 50
53.91828854
 51
91.24869688
  0
ARC
  8
LAYER_1
 10
436.0967
 20
-22.693
 40
0.7706
 50
51.16371242
 51
52.1565867
  0
ENDBLK
  0
BLOCK
  8
LAYER_1
  2
AIGNBL01020016
 70
64
 10
0
 20
0
 30
0
  3
AIGNBL01020016
  0
LINE
  8
LAYER_1
 10
438.9565
 20
-23.9379
 11
440.0227
 21
-20.8746
  0
LINE
  8
LAYER_1
 10
440.0227
 20
-20.8746
 11
440.4002
 21
-20.8746
  0
LINE
  8
LAYER_1
 10
440.4002
 20
-20.8746
 11
439.1344
 21
-24.3679
  0
LINE
  8
LAYER_1
 10
439.1344
 20
-24.3679
 11
438.779
 21
-24.3679
  0
LINE
  8
LAYER_1
 10
438.779
 20
-24.3679
 11
437.5132
 21
-20.8746
  0
LINE
  8
LAYER_1
 10
437.5132
 20
-20.8746
 11
437.8907
 21
-20.8746
  0
LINE
  8
LAYER_1
 10
437.8907
 20
-20.8746
 11
438.9565
 21
-23.9379
  0
ENDBLK
  0
BLOCK
  8
LAYER_1
  2
AIGNBL01020017
 70
64
 10
0
 20
0
 30
0
  3
AIGNBL01020017
  0
ARC
  8
LAYER_1
 10
442.3653
 20
-22.8166
 40
0.8777
 50
12.6118864
 51
49.76808645
  0
ARC
  8
LAYER_1
 10
441.2567
 20
-23.1396
 40
2.0315
 50
358.7054737
 51
14.67543745
  0
LINE
  8
LAYER_1
 10
443.2876
 20
-23.1855
 11
441.4218
 21
-23.1855
  0
ARC
  8
LAYER_1
 10
442.5868
 20
-23.1824
 40
1.165
 50
180.1525504
 51
212.934895
  0
ARC
  8
LAYER_1
 10
442.0968
 20
-23.4419
 40
0.6146
 50
217.4671632
 51
231.0661487
  0
ARC
  8
LAYER_1
 10
442.2143
 20
-23.3019
 40
0.7974
 50
230.8249409
 51
270.5110491
  0
ARC
  8
LAYER_1
 10
442.227
 20
-23.2975
 40
0.8017
 50
269.6008139
 51
309.0631962
  0
ARC
  8
LAYER_1
 10
442.3724
 20
-23.4797
 40
0.5686
 50
309.2498475
 51
349.8779271
  0
LINE
  8
LAYER_1
 10
442.9322
 20
-23.5796
 11
443.243
 21
-23.5796
  0
ARC
  8
LAYER_1
 10
442.4224
 20
-23.4875
 40
0.8258
 50
314.9109041
 51
353.5950804
  0
ARC
  8
LAYER_1
 10
442.4692
 20
-23.5124
 40
0.7752
 50
308.7395833
 51
313.7628734
  0
ARC
  8
LAYER_1
 10
442.2423
 20
-23.2328
 40
1.1353
 50
268.9430762
 51
308.8390436
  0
ARC
  8
LAYER_1
 10
442.2037
 20
-23.141
 40
1.227
 50
239.2915575
 51
270.8243559
  0
ARC
  8
LAYER_1
 10
442.1542
 20
-23.2685
 40
1.0923
 50
230.9757754
 51
238.1127847
  0
ARC
  8
LAYER_1
 10
442.0656
 20
-23.387
 40
0.9445
 50
194.4648819
 51
230.6233388
  0
ARC
  8
LAYER_1
 10
442.8004
 20
-23.1647
 40
1.7118
 50
178.8975076
 51
195.5256865
  0
ARC
  8
LAYER_1
 10
442.5524
 20
-23.0969
 40
1.464
 50
152.2522295
 51
181.3642106
  0
ARC
  8
LAYER_1
 10
442.103
 20
-22.9102
 40
0.9802
 50
128.8196472
 51
149.67893
  0
ARC
  8
LAYER_1
 10
442.1439
 20
-22.9744
 40
1.0559
 50
94.54633015
 51
128.3661435
  0
ARC
  8
LAYER_1
 10
442.2123
 20
-23.3208
 40
1.4073
 50
89.62772971
 51
96.20349867
  0
ARC
  8
LAYER_1
 10
442.2398
 20
-23.0754
 40
1.162
 50
58.69952131
 51
90.90490401
  0
ARC
  8
LAYER_1
 10
442.2966
 20
-22.9356
 40
1.0132
 50
51.14782851
 51
57.33687238
  0
ARC
  8
LAYER_1
 10
442.0611
 20
-22.9267
 40
0.8932
 50
0.632316343
 51
37.95011538
  0
ARC
  8
LAYER_1
 10
442.3638
 20
-22.7517
 40
0.549
 50
42.98287442
 51
50.89905263
  0
ARC
  8
LAYER_1
 10
442.2457
 20
-22.9122
 40
0.7482
 50
51.62942978
 51
91.85980427
  0
ARC
  8
LAYER_1
 10
442.1991
 20
-22.9837
 40
0.8196
 50
88.44194211
 51
126.5877202
  0
ARC
  8
LAYER_1
 10
442.2037
 20
-22.9326
 40
0.7821
 50
129.0878155
 51
178.841354
  0
LINE
  8
LAYER_1
 10
441.4218
 20
-22.9168
 11
442.9543
 21
-22.9168
  0
ENDBLK
  0
BLOCK
  8
LAYER_1
  2
AIGNBL01020018
 70
64
 10
0
 20
0
 30
0
  3
AIGNBL01020018
  0
ARC
  8
LAYER_1
 10
445.2712
 20
-22.78
 40
0.8375
 50
1.671258445
 51
51.06339914
  0
LINE
  8
LAYER_1
 10
446.1083
 20
-22.7556
 11
445.775
 21
-22.7556
  0
ARC
  8
LAYER_1
 10
445.1304
 20
-22.7736
 40
0.6448
 50
1.599956973
 51
45.68640969
  0
ARC
  8
LAYER_1
 10
445.282
 20
-22.6694
 40
0.4658
 50
50.07824544
 51
50.95455807
  0
ARC
  8
LAYER_1
 10
445.1576
 20
-22.8428
 40
0.6789
 50
52.01439078
 51
92.22595481
  0
ARC
  8
LAYER_1
 10
445.1259
 20
-22.9683
 40
0.804
 50
89.62153146
 51
128.9945028
  0
ARC
  8
LAYER_1
 10
445.1328
 20
-22.961
 40
0.8027
 50
129.7095234
 51
169.2383847
  0
ARC
  8
LAYER_1
 10
445.8174
 20
-23.1348
 40
1.5083
 50
167.6063946
 51
180.5653725
  0
ARC
  8
LAYER_1
 10
445.5212
 20
-23.1945
 40
1.2128
 50
177.8808615
 51
209.7571183
  0
ARC
  8
LAYER_1
 10
445.0034
 20
-23.4361
 40
0.6452
 50
213.9608257
 51
231.0572481
  0
ARC
  8
LAYER_1
 10
445.0942
 20
-23.3403
 40
0.7768
 50
230.2878105
 51
269.4450934
  0
ARC
  8
LAYER_1
 10
445.1068
 20
-23.4817
 40
0.6357
 50
268.1898153
 51
306.6553403
  0
ARC
  8
LAYER_1
 10
445.0558
 20
-23.4719
 40
0.6749
 50
309.6324237
 51
331.4085902
  0
ARC
  8
LAYER_1
 10
444.6213
 20
-23.2477
 40
1.1638
 50
331.95394
 51
352.4559225
  0
LINE
  8
LAYER_1
 10
445.775
 20
-23.4005
 11
446.1083
 21
-23.4005
  0
ARC
  8
LAYER_1
 10
444.9246
 20
-23.3314
 40
1.1857
 50
324.474546
 51
356.6583966
  0
ARC
  8
LAYER_1
 10
445.2997
 20
-23.5453
 40
0.7574
 50
308.8650125
 51
321.1503435
  0
ARC
  8
LAYER_1
 10
445.1188
 20
-23.3273
 40
1.0406
 50
269.4475231
 51
309.0911903
  0
ARC
  8
LAYER_1
 10
445.0846
 20
-23.1482
 40
1.22
 50
239.4742138
 51
271.1358593
  0
ARC
  8
LAYER_1
 10
444.9902
 20
-23.3748
 40
0.9773
 50
231.0597509
 51
237.4946614
  0
ARC
  8
LAYER_1
 10
445.0129
 20
-23.3501
 40
1.0109
 50
196.201462
 51
230.939326
  0
ARC
  8
LAYER_1
 10
445.5641
 20
-23.1786
 40
1.588
 50
178.955892
 51
196.592382
  0
ARC
  8
LAYER_1
 10
445.44
 20
-23.1148
 40
1.4641
 50
152.2570094
 51
181.3661544
  0
ARC
  8
LAYER_1
 10
444.9899
 20
-22.9279
 40
0.9798
 50
128.8084293
 51
149.6793015
  0
ARC
  8
LAYER_1
 10
445.0948
 20
-23.0667
 40
1.1537
 50
88.19172
 51
128.5461335
  0
ARC
  8
LAYER_1
 10
445.152
 20
-23.0026
 40
1.0892
 50
57.48337982
 51
91.09649987
  0
ARC
  8
LAYER_1
 10
445.2204
 20
-22.8444
 40
0.9195
 50
51.1229112
 51
55.77503012
  0
ENDBLK
  0
BLOCK
  8
LAYER_1
  2
AIGNBL01020019
 70
64
 10
0
 20
0
 30
0
  3
AIGNBL01020019
  0
LINE
  8
LAYER_1
 10
447.1745
 20
-22.1823
 11
446.797
 21
-22.1823
  0
LINE
  8
LAYER_1
 10
446.797
 20
-22.1823
 11
446.797
 21
-21.9136
  0
LINE
  8
LAYER_1
 10
446.797
 20
-21.9136
 11
447.1745
 21
-21.9136
  0
LINE
  8
LAYER_1
 10
447.1745
 20
-21.9136
 11
447.1745
 21
-21.2328
  0
LINE
  8
LAYER_1
 10
447.1745
 20
-21.2328
 11
447.4853
 21
-21.2328
  0
LINE
  8
LAYER_1
 10
447.4853
 20
-21.2328
 11
447.4853
 21
-21.9136
  0
LINE
  8
LAYER_1
 10
447.4853
 20
-21.9136
 11
448.1295
 21
-21.9136
  0
LINE
  8
LAYER_1
 10
448.1295
 20
-21.9136
 11
448.1295
 21
-22.1823
  0
LINE
  8
LAYER_1
 10
448.1295
 20
-22.1823
 11
447.4853
 21
-22.1823
  0
LINE
  8
LAYER_1
 10
447.4853
 20
-22.1823
 11
447.4853
 21
-23.8842
  0
ARC
  8
LAYER_1
 10
447.6801
 20
-23.898
 40
0.1953
 50
175.9549756
 51
229.0018003
  0
ARC
  8
LAYER_1
 10
447.741
 20
-23.7506
 40
0.3502
 50
237.3384281
 51
275.4282568
  0
ARC
  8
LAYER_1
 10
447.7022
 20
-22.0516
 40
2.0489
 50
272.0111657
 51
283.3132415
  0
LINE
  8
LAYER_1
 10
448.174
 20
-24.0454
 11
448.174
 21
-24.3141
  0
ARC
  8
LAYER_1
 10
447.7655
 20
-22.8026
 40
1.5657
 50
268.6807438
 51
285.1216927
  0
ARC
  8
LAYER_1
 10
447.6831
 20
-23.6689
 40
0.7006
 50
237.6031931
 51
273.7942508
  0
ARC
  8
LAYER_1
 10
447.5563
 20
-23.9689
 40
0.3831
 50
175.3615279
 51
229.5523501
  0
LINE
  8
LAYER_1
 10
447.1745
 20
-23.9379
 11
447.1745
 21
-22.1823
  0
ENDBLK
  0
BLOCK
  8
LAYER_1
  2
AIGNBL0102001A
 70
64
 10
0
 20
0
 30
0
  3
AIGNBL0102001A
  0
ARC
  8
LAYER_1
 10
449.9985
 20
-23.0995
 40
1.1859
 50
50.66150285
 51
90.17219299
  0
ARC
  8
LAYER_1
 10
450.1425
 20
-22.9244
 40
0.9592
 50
14.76823995
 51
50.68858398
  0
ARC
  8
LAYER_1
 10
449.5309
 20
-23.106
 40
1.597
 50
359.0745588
 51
15.47326638
  0
ARC
  8
LAYER_1
 10
449.6392
 20
-23.1698
 40
1.489
 50
332.9248548
 51
1.463570552
  0
ARC
  8
LAYER_1
 10
450.1815
 20
-23.3962
 40
0.9042
 50
308.9730079
 51
330.0558863
  0
ARC
  8
LAYER_1
 10
449.9958
 20
-23.1745
 40
1.1934
 50
269.9580643
 51
309.2082399
  0
ARC
  8
LAYER_1
 10
449.9911
 20
-23.1836
 40
1.1843
 50
230.6338742
 51
270.1854435
  0
ARC
  8
LAYER_1
 10
449.8404
 20
-23.3648
 40
0.9487
 50
194.5571008
 51
230.7288295
  0
ARC
  8
LAYER_1
 10
450.5227
 20
-23.1608
 40
1.6605
 50
179.000404
 51
195.4530529
  0
ARC
  8
LAYER_1
 10
450.2966
 20
-23.0958
 40
1.4346
 50
152.440143
 51
181.4386246
  0
ARC
  8
LAYER_1
 10
449.8132
 20
-22.8938
 40
0.9137
 50
128.8590762
 51
149.64206
  0
ARC
  8
LAYER_1
 10
449.9938
 20
-23.1055
 40
1.1919
 50
89.94611367
 51
129.2345685
  0
ARC
  8
LAYER_1
 10
449.9647
 20
-22.9353
 40
0.7485
 50
129.9572066
 51
170.513785
  0
ARC
  8
LAYER_1
 10
450.7172
 20
-23.1184
 40
1.5219
 50
168.3825372
 51
180.5048727
  0
ARC
  8
LAYER_1
 10
450.4073
 20
-23.1766
 40
1.2128
 50
177.8808615
 51
209.7571183
  0
ARC
  8
LAYER_1
 10
449.8895
 20
-23.4182
 40
0.6452
 50
213.9608257
 51
231.0572481
  0
ARC
  8
LAYER_1
 10
449.9878
 20
-23.3017
 40
0.7976
 50
230.8301274
 51
270.5128691
  0
ARC
  8
LAYER_1
 10
450.0004
 20
-23.2973
 40
0.8019
 50
269.6052449
 51
309.0587652
  0
ARC
  8
LAYER_1
 10
450.026
 20
-23.3495
 40
0.7453
 50
310.0589858
 51
350.8067204
  0
ARC
  8
LAYER_1
 10
449.2039
 20
-23.1478
 40
1.5906
 50
348.3621131
 51
0.5748288015
  0
ARC
  8
LAYER_1
 10
449.6329
 20
-23.0901
 40
1.1623
 50
357.9424682
 51
30.405245
  0
ARC
  8
LAYER_1
 10
450.0906
 20
-22.8749
 40
0.6602
 50
34.40440476
 51
51.04012059
  0
ARC
  8
LAYER_1
 10
450.0006
 20
-22.9838
 40
0.8015
 50
50.93185275
 51
90.40413715
  0
ARC
  8
LAYER_1
 10
449.9897
 20
-22.9855
 40
0.8032
 50
89.63143996
 51
129.0255635
  0
ENDBLK
  0
BLOCK
  8
LAYER_1
  2
AIGNBL0102001B
 70
64
 10
0
 20
0
 30
0
  3
AIGNBL0102001B
  0
ARC
  8
LAYER_1
 10
453.2071
 20
-23.2654
 40
1.0479
 50
91.97449921
 51
126.0364908
  0
ARC
  8
LAYER_1
 10
453.1531
 20
-23.1543
 40
0.9265
 50
127.3790583
 51
128.8914925
  0
ARC
  8
LAYER_1
 10
453.3942
 20
-23.437
 40
1.298
 50
129.3388101
 51
160.172392
  0
ARC
  8
LAYER_1
 10
453.7348
 20
-23.6033
 40
1.6753
 50
158.7720401
 51
163.6528483
  0
LINE
  8
LAYER_1
 10
452.1272
 20
-23.1318
 11
452.1272
 21
-24.3679
  0
LINE
  8
LAYER_1
 10
452.1272
 20
-24.3679
 11
451.8164
 21
-24.3679
  0
LINE
  8
LAYER_1
 10
451.8164
 20
-24.3679
 11
451.8164
 21
-21.9136
  0
LINE
  8
LAYER_1
 10
451.8164
 20
-21.9136
 11
452.1272
 21
-21.9136
  0
LINE
  8
LAYER_1
 10
452.1272
 20
-21.9136
 11
452.1272
 21
-22.5585
  0
ARC
  8
LAYER_1
 10
453.0506
 20
-23.0051
 40
1.0257
 50
126.6660176
 51
154.191822
  0
ARC
  8
LAYER_1
 10
453.2
 20
-23.1492
 40
1.231
 50
96.7347369
 51
128.2380372
  0
ARC
  8
LAYER_1
 10
453.2999
 20
-23.5668
 40
1.6582
 50
94.45866182
 51
98.47013404
  0
LINE
  8
LAYER_1
 10
453.171
 20
-21.9136
 11
453.171
 21
-22.2181
  0
ENDBLK
  0
BLOCK
  8
LAYER_1
  2
AIGNBL0102001C
 70
64
 10
0
 20
0
 30
0
  3
AIGNBL0102001C
  0
ARC
  8
LAYER_1
 10
457.2281
 20
-22.2377
 40
1.3725
 50
22.00525061
 51
51.66041441
  0
ARC
  8
LAYER_1
 10
457.196
 20
-22.2247
 40
1.3976
 50
3.944709453
 51
21.01923372
  0
LINE
  8
LAYER_1
 10
458.5903
 20
-22.1286
 11
458.2349
 21
-22.1286
  0
ARC
  8
LAYER_1
 10
456.9465
 20
-22.3383
 40
1.3053
 50
9.244936017
 51
39.89846196
  0
ARC
  8
LAYER_1
 10
457.2117
 20
-22.1656
 40
0.9919
 50
42.07227079
 51
51.06597021
  0
ARC
  8
LAYER_1
 10
457.2269
 20
-22.1463
 40
0.9673
 50
51.04363883
 51
90.80293306
  0
ARC
  8
LAYER_1
 10
457.2132
 20
-22.186
 40
1.0069
 50
89.99521346
 51
129.7637352
  0
ARC
  8
LAYER_1
 10
457.2915
 20
-22.2936
 40
1.1397
 50
129.327932
 51
161.8386962
  0
ARC
  8
LAYER_1
 10
458.1241
 20
-22.5874
 40
2.0225
 50
161.2807043
 51
181.7187803
  0
ARC
  8
LAYER_1
 10
458.203
 20
-22.7027
 40
2.1012
 50
178.511837
 51
202.8960359
  0
ARC
  8
LAYER_1
 10
457.1477
 20
-23.0951
 40
0.9776
 50
205.7715322
 51
230.4037019
  0
ARC
  8
LAYER_1
 10
457.1335
 20
-23.0803
 40
0.9802
 50
231.5971318
 51
266.9374647
  0
ARC
  8
LAYER_1
 10
457.1854
 20
-22.7834
 40
1.28
 50
265.3245196
 51
270.2397005
  0
ARC
  8
LAYER_1
 10
457.2119
 20
-22.9737
 40
1.0898
 50
268.8891446
 51
302.4978619
  0
ARC
  8
LAYER_1
 10
457.2813
 20
-23.1343
 40
0.9175
 50
304.2317539
 51
308.8925694
  0
ARC
  8
LAYER_1
 10
457.2394
 20
-23.1088
 40
0.9638
 50
309.8804575
 51
345.8002502
  0
ARC
  8
LAYER_1
 10
456.4132
 20
-22.8324
 40
1.8338
 50
343.7622191
 51
353.4314757
  0
LINE
  8
LAYER_1
 10
458.2349
 20
-23.0422
 11
458.5903
 21
-23.0422
  0
ARC
  8
LAYER_1
 10
456.8256
 20
-22.9134
 40
1.7694
 50
329.5088725
 51
355.8261983
  0
ARC
  8
LAYER_1
 10
457.4444
 20
-23.2248
 40
1.0792
 50
309.0113598
 51
327.0821032
  0
ARC
  8
LAYER_1
 10
457.2538
 20
-22.9761
 40
1.3924
 50
268.3335414
 51
308.6646952
  0
ARC
  8
LAYER_1
 10
457.197
 20
-22.8103
 40
1.5577
 50
242.6588458
 51
270.6006766
  0
ARC
  8
LAYER_1
 10
457.1662
 20
-22.9231
 40
1.4435
 50
231.0262418
 51
241.6854014
  0
ARC
  8
LAYER_1
 10
457.0244
 20
-23.1143
 40
1.2058
 50
198.8267533
 51
230.5520207
  0
ARC
  8
LAYER_1
 10
457.7715
 20
-22.8148
 40
2.0099
 50
188.8832421
 51
200.0355982
  0
ARC
  8
LAYER_1
 10
458.9199
 20
-22.6343
 40
3.1725
 50
179.6026618
 51
188.9012914
  0
ARC
  8
LAYER_1
 10
457.8769
 20
-22.5812
 40
2.1297
 50
156.9967553
 51
180.8361337
  0
ARC
  8
LAYER_1
 10
457.2961
 20
-22.3809
 40
1.5173
 50
128.7135698
 51
155.3870176
  0
ARC
  8
LAYER_1
 10
457.2619
 20
-22.304
 40
1.4361
 50
100.5737547
 51
129.5697784
  0
ARC
  8
LAYER_1
 10
457.2126
 20
-22.18
 40
1.3054
 50
89.97110599
 51
99.44652635
  0
ARC
  8
LAYER_1
 10
457.232
 20
-22.2994
 40
1.425
 50
61.295461
 51
90.75165687
  0
ARC
  8
LAYER_1
 10
457.2812
 20
-22.1529
 40
1.2731
 50
51.16628827
 51
60.06998139
  0
ENDBLK
  0
BLOCK
  8
LAYER_1
  2
AIGNBL0102001D
 70
64
 10
0
 20
0
 30
0
  3
AIGNBL0102001D
  0
ARC
  8
LAYER_1
 10
460.4151
 20
-23.0998
 40
1.1862
 50
50.66677427
 51
90.17171201
  0
ARC
  8
LAYER_1
 10
460.5592
 20
-22.9244
 40
0.9592
 50
14.76823995
 51
50.68858398
  0
ARC
  8
LAYER_1
 10
459.9476
 20
-23.106
 40
1.597
 50
359.0745588
 51
15.47326638
  0
ARC
  8
LAYER_1
 10
460.0559
 20
-23.1698
 40
1.489
 50
332.9248548
 51
1.463570552
  0
ARC
  8
LAYER_1
 10
460.5982
 20
-23.3962
 40
0.9042
 50
308.9730079
 51
330.0558863
  0
ARC
  8
LAYER_1
 10
460.4124
 20
-23.1743
 40
1.1936
 50
269.9562788
 51
309.2052349
  0
ARC
  8
LAYER_1
 10
460.4077
 20
-23.1836
 40
1.1844
 50
230.6348894
 51
270.1844284
  0
ARC
  8
LAYER_1
 10
460.2574
 20
-23.3645
 40
0.9491
 50
194.5638459
 51
230.717391
  0
ARC
  8
LAYER_1
 10
460.9388
 20
-23.1607
 40
1.6601
 50
179.0015303
 51
195.4587807
  0
ARC
  8
LAYER_1
 10
460.7131
 20
-23.0958
 40
1.4345
 50
152.4352517
 51
181.4366148
  0
ARC
  8
LAYER_1
 10
460.2302
 20
-22.894
 40
0.9142
 50
128.8709262
 51
149.6419077
  0
ARC
  8
LAYER_1
 10
460.4105
 20
-23.1059
 40
1.1923
 50
89.95302455
 51
129.2276577
  0
ARC
  8
LAYER_1
 10
460.381
 20
-22.9351
 40
0.7481
 50
129.9426778
 51
170.5241534
  0
ARC
  8
LAYER_1
 10
461.1347
 20
-23.1184
 40
1.5227
 50
168.3896326
 51
180.5054784
  0
ARC
  8
LAYER_1
 10
460.824
 20
-23.1767
 40
1.2129
 50
177.8776841
 51
209.7531783
  0
ARC
  8
LAYER_1
 10
460.3059
 20
-23.4183
 40
0.6448
 50
213.9644615
 51
231.0723734
  0
ARC
  8
LAYER_1
 10
460.4044
 20
-23.3019
 40
0.7974
 50
230.8249409
 51
270.5110491
  0
ARC
  8
LAYER_1
 10
460.4171
 20
-23.2976
 40
0.8016
 50
269.5985724
 51
309.0654377
  0
ARC
  8
LAYER_1
 10
460.4429
 20
-23.3495
 40
0.7452
 50
310.0430385
 51
350.8041923
  0
ARC
  8
LAYER_1
 10
459.6209
 20
-23.1478
 40
1.5903
 50
348.3604548
 51
0.5752092068
  0
ARC
  8
LAYER_1
 10
460.0499
 20
-23.0901
 40
1.1619
 50
357.9411261
 51
30.4135778
  0
ARC
  8
LAYER_1
 10
460.5073
 20
-22.875
 40
0.6602
 50
34.41537859
 51
51.05519408
  0
ARC
  8
LAYER_1
 10
460.4173
 20
-22.9833
 40
0.801
 50
50.91885077
 51
90.41713913
  0
ARC
  8
LAYER_1
 10
460.4063
 20
-22.9852
 40
0.8029
 50
89.63079039
 51
129.0332197
  0
ENDBLK
  0
BLOCK
  8
LAYER_1
  2
AIGNBL0102001E
 70
64
 10
0
 20
0
 30
0
  3
AIGNBL0102001E
  0
ARC
  8
LAYER_1
 10
463.6237
 20
-23.2652
 40
1.0477
 50
91.97641172
 51
126.0400003
  0
ARC
  8
LAYER_1
 10
463.569
 20
-23.1528
 40
0.9248
 50
127.3935971
 51
128.9082912
  0
ARC
  8
LAYER_1
 10
463.8109
 20
-23.437
 40
1.298
 50
129.3388101
 51
160.172392
  0
ARC
  8
LAYER_1
 10
464.1515
 20
-23.6033
 40
1.6753
 50
158.7720401
 51
163.6528483
  0
LINE
  8
LAYER_1
 10
462.5439
 20
-23.1318
 11
462.5439
 21
-24.3679
  0
LINE
  8
LAYER_1
 10
462.5439
 20
-24.3679
 11
462.2331
 21
-24.3679
  0
LINE
  8
LAYER_1
 10
462.2331
 20
-24.3679
 11
462.2331
 21
-21.9136
  0
LINE
  8
LAYER_1
 10
462.2331
 20
-21.9136
 11
462.5439
 21
-21.9136
  0
LINE
  8
LAYER_1
 10
462.5439
 20
-21.9136
 11
462.5439
 21
-22.5585
  0
ARC
  8
LAYER_1
 10
463.4679
 20
-23.0053
 40
1.0263
 50
126.6854221
 51
154.190519
  0
ARC
  8
LAYER_1
 10
463.617
 20
-23.15
 40
1.2319
 50
96.74353549
 51
128.2269731
  0
ARC
  8
LAYER_1
 10
463.7165
 20
-23.5663
 40
1.6577
 50
94.46061072
 51
98.47202668
  0
LINE
  8
LAYER_1
 10
463.5876
 20
-21.9136
 11
463.5876
 21
-22.2181
  0
ENDBLK
  0
BLOCK
  8
LAYER_1
  2
AIGNBL0102001F
 70
64
 10
0
 20
0
 30
0
  3
AIGNBL0102001F
  0
LINE
  8
LAYER_1
 10
464.5872
 20
-25.0307
 11
464.2763
 21
-25.0307
  0
LINE
  8
LAYER_1
 10
464.2763
 20
-25.0307
 11
464.2763
 21
-21.9136
  0
LINE
  8
LAYER_1
 10
464.2763
 20
-21.9136
 11
464.5872
 21
-21.9136
  0
LINE
  8
LAYER_1
 10
464.5872
 20
-21.9136
 11
464.5872
 21
-22.3794
  0
ARC
  8
LAYER_1
 10
465.5049
 20
-22.9678
 40
1.0901
 50
128.1618356
 51
147.3311302
  0
ARC
  8
LAYER_1
 10
465.3844
 20
-22.7882
 40
0.8746
 50
89.84965379
 51
129.2277939
  0
ARC
  8
LAYER_1
 10
465.4038
 20
-22.8779
 40
0.9645
 50
55.40604137
 51
91.0140482
  0
ARC
  8
LAYER_1
 10
465.4458
 20
-22.7809
 40
0.861
 50
51.11842627
 51
54.045517
  0
ARC
  8
LAYER_1
 10
465.3484
 20
-22.8966
 40
1.0122
 50
16.23162703
 51
50.93448874
  0
ARC
  8
LAYER_1
 10
464.8011
 20
-23.0673
 40
1.5854
 50
358.9644331
 51
16.62754507
  0
ARC
  8
LAYER_1
 10
464.6966
 20
-23.1401
 40
1.6902
 50
334.4913298
 51
1.493701086
  0
ARC
  8
LAYER_1
 10
465.3891
 20
-23.4187
 40
0.9464
 50
309.1216072
 51
331.658355
  0
ARC
  8
LAYER_1
 10
465.3782
 20
-23.4007
 40
0.9673
 50
269.1970669
 51
308.9563612
  0
ARC
  8
LAYER_1
 10
465.3654
 20
-23.4846
 40
0.8833
 50
230.973147
 51
269.9494053
  0
ARC
  8
LAYER_1
 10
465.2672
 20
-23.5663
 40
0.7584
 50
206.2791379
 51
232.8479123
  0
LINE
  8
LAYER_1
 10
464.5872
 20
-23.9021
 11
464.5872
 21
-25.0307
  0
ARC
  8
LAYER_1
 10
465.3584
 20
-23.4648
 40
0.6371
 50
309.5633366
 51
332.3165664
  0
ARC
  8
LAYER_1
 10
465.0346
 20
-23.3002
 40
1.0003
 50
332.5874375
 51
348.2770634
  0
ARC
  8
LAYER_1
 10
464.1667
 20
-23.1212
 40
1.8865
 50
348.308443
 51
0.7642331344
  0
ARC
  8
LAYER_1
 10
464.5593
 20
-23.0633
 40
1.494
 50
358.7459202
 51
14.80000182
  0
ARC
  8
LAYER_1
 10
465.3164
 20
-22.8571
 40
0.7094
 50
14.31763419
 51
48.51865146
  0
ARC
  8
LAYER_1
 10
465.3778
 20
-22.8355
 40
0.6533
 50
51.30164547
 51
91.16128832
  0
ARC
  8
LAYER_1
 10
465.3571
 20
-22.9165
 40
0.7343
 50
89.41636835
 51
128.7014341
  0
ARC
  8
LAYER_1
 10
465.4079
 20
-22.9625
 40
0.802
 50
129.4815759
 51
169.0405766
  0
ARC
  8
LAYER_1
 10
466.028
 20
-23.1186
 40
1.4409
 50
167.6328035
 51
180.5240777
  0
ARC
  8
LAYER_1
 10
465.7955
 20
-23.1701
 40
1.2089
 50
178.1861176
 51
209.90735
  0
ARC
  8
LAYER_1
 10
465.3538
 20
-23.3714
 40
0.7271
 50
213.5089469
 51
231.1761067
  0
ARC
  8
LAYER_1
 10
465.3462
 20
-23.3958
 40
0.7034
 50
230.4137756
 51
269.6718028
  0
ARC
  8
LAYER_1
 10
465.3521
 20
-23.4353
 40
0.664
 50
269.1481116
 51
308.364136
  0
ENDBLK
  0
BLOCK
  8
LAYER_1
  2
AIGNBL01020020
 70
64
 10
0
 20
0
 30
0
  3
AIGNBL01020020
  0
LINE
  8
LAYER_1
 10
467.5188
 20
-23.9917
 11
467.5188
 21
-24.3679
  0
LINE
  8
LAYER_1
 10
467.5188
 20
-24.3679
 11
467.0746
 21
-24.3679
  0
LINE
  8
LAYER_1
 10
467.0746
 20
-24.3679
 11
467.0746
 21
-23.9917
  0
LINE
  8
LAYER_1
 10
467.0746
 20
-23.9917
 11
467.5188
 21
-23.9917
  0
ENDBLK
  0
BLOCK
  8
LAYER_1
  2
AIGNBL01010002
 70
64
 10
0
 20
0
 30
0
  3
AIGNBL01010002
  0
LINE
  8
LAYER_1
 10
339.2705
 20
-16.6211
 11
469.2192
 21
-16.6211
  0
LINE
  8
LAYER_1
 10
339.2705
 20
-26.6172
 11
469.2192
 21
-26.6172
  0
LINE
  8
LAYER_1
 10
339.2705
 20
-66.6014
 11
339.2705
 21
-16.6211
  0
LINE
  8
LAYER_1
 10
359.2626
 20
-66.6014
 11
359.2626
 21
-26.6172
  0
LINE
  8
LAYER_1
 10
424.2369
 20
-66.6014
 11
424.2369
 21
-26.6172
  0
LINE
  8
LAYER_1
 10
404.2448
 20
-66.6014
 11
404.2448
 21
-26.6172
  0
LINE
  8
LAYER_1
 10
339.2705
 20
-36.6132
 11
469.2192
 21
-36.6132
  0
LINE
  8
LAYER_1
 10
339.2705
 20
-46.6093
 11
469.2192
 21
-46.6093
  0
LINE
  8
LAYER_1
 10
339.2705
 20
-56.6053
 11
469.2192
 21
-56.6053
  0
LINE
  8
LAYER_1
 10
469.2192
 20
-66.6014
 11
124.874
 21
-66.6014
  0
LINE
  8
LAYER_1
 10
124.874
 20
-66.6014
 11
124.874
 21
169.592
  0
LINE
  8
LAYER_1
 10
124.874
 20
169.592
 11
469.2192
 21
169.592
  0
LINE
  8
LAYER_1
 10
469.2192
 20
169.592
 11
469.2192
 21
-66.6014
  0
ENDBLK
  0
BLOCK
  8
LAYER_1
  2
AIGNBL01010003
 70
64
 10
0
 20
0
 30
0
  3
AIGNBL01010003
  0
INSERT
  8
LAYER_1
  2
AIGNBL01020004
 10
0
 20
0
 30
0
  0
INSERT
  8
LAYER_1
  2
AIGNBL01020005
 10
0
 20
0
 30
0
  0
LINE
  8
LAYER_1
 10
364.1876
 20
-18.593
 11
364.1876
 21
-19.3256
  0
LINE
  8
LAYER_1
 10
364.1876
 20
-19.3256
 11
366.139
 21
-19.3256
  0
LINE
  8
LAYER_1
 10
366.139
 20
-19.3256
 11
366.139
 21
-19.6099
  0
LINE
  8
LAYER_1
 10
366.139
 20
-19.6099
 11
363.7058
 21
-19.6099
  0
LINE
  8
LAYER_1
 10
363.7058
 20
-19.6099
 11
363.7058
 21
-21.1532
  0
LINE
  8
LAYER_1
 10
363.7058
 20
-21.1532
 11
364.5329
 21
-21.1532
  0
LINE
  8
LAYER_1
 10
364.5329
 20
-21.1532
 11
364.5329
 21
-20.3293
  0
LINE
  8
LAYER_1
 10
364.5329
 20
-20.3293
 11
366.1352
 21
-20.3293
  0
LINE
  8
LAYER_1
 10
366.1352
 20
-20.3293
 11
366.1352
 21
-21.951
  0
LINE
  8
LAYER_1
 10
366.1352
 20
-21.951
 11
367.0526
 21
-21.951
  0
LINE
  8
LAYER_1
 10
367.0526
 20
-21.951
 11
367.0526
 21
-20.3293
  0
LINE
  8
LAYER_1
 10
367.0526
 20
-20.3293
 11
368.6679
 21
-20.3293
  0
LINE
  8
LAYER_1
 10
368.6679
 20
-20.3293
 11
368.6679
 21
-21.1532
  0
LINE
  8
LAYER_1
 10
368.6679
 20
-21.1532
 11
369.5334
 21
-21.1532
  0
LINE
  8
LAYER_1
 10
369.5334
 20
-21.1532
 11
369.5334
 21
-19.6099
  0
LINE
  8
LAYER_1
 10
369.5334
 20
-19.6099
 11
367.0563
 21
-19.6099
  0
LINE
  8
LAYER_1
 10
367.0563
 20
-19.6099
 11
367.0563
 21
-19.3256
  0
LINE
  8
LAYER_1
 10
367.0563
 20
-19.3256
 11
369.0139
 21
-19.3256
  0
LINE
  8
LAYER_1
 10
369.0139
 20
-19.3256
 11
369.0139
 21
-18.593
  0
LINE
  8
LAYER_1
 10
369.0139
 20
-18.593
 11
364.1876
 21
-18.593
  0
LINE
  8
LAYER_1
 10
364.6846
 20
-21.0494
 11
365.8643
 21
-21.0494
  0
LINE
  8
LAYER_1
 10
365.8643
 20
-21.0494
 11
365.8643
 21
-20.5839
  0
LINE
  8
LAYER_1
 10
365.8643
 20
-20.5839
 11
364.6846
 21
-20.5839
  0
LINE
  8
LAYER_1
 10
364.6846
 20
-20.5839
 11
364.6846
 21
-21.0494
  0
LINE
  8
LAYER_1
 10
364.5424
 20
-21.7545
 11
365.8643
 21
-21.7545
  0
LINE
  8
LAYER_1
 10
365.8643
 20
-21.7545
 11
365.8643
 21
-21.2892
  0
LINE
  8
LAYER_1
 10
365.8643
 20
-21.2892
 11
364.5424
 21
-21.2892
  0
LINE
  8
LAYER_1
 10
364.5424
 20
-21.2892
 11
364.5424
 21
-21.7545
  0
LINE
  8
LAYER_1
 10
367.3232
 20
-21.0494
 11
368.503
 21
-21.0494
  0
LINE
  8
LAYER_1
 10
368.503
 20
-21.0494
 11
368.503
 21
-20.5839
  0
LINE
  8
LAYER_1
 10
368.503
 20
-20.5839
 11
367.3232
 21
-20.5839
  0
LINE
  8
LAYER_1
 10
367.3232
 20
-20.5839
 11
367.3232
 21
-21.0494
  0
LINE
  8
LAYER_1
 10
367.3232
 20
-21.7545
 11
368.6515
 21
-21.7545
  0
LINE
  8
LAYER_1
 10
368.6515
 20
-21.7545
 11
368.6515
 21
-21.2892
  0
LINE
  8
LAYER_1
 10
368.6515
 20
-21.2892
 11
367.3232
 21
-21.2892
  0
LINE
  8
LAYER_1
 10
367.3232
 20
-21.2892
 11
367.3232
 21
-21.7545
  0
INSERT
  8
LAYER_1
  2
AIGNBL01020006
 10
0
 20
0
 30
0
  0
INSERT
  8
LAYER_1
  2
AIGNBL01020007
 10
0
 20
0
 30
0
  0
INSERT
  8
LAYER_1
  2
AIGNBL01020008
 10
0
 20
0
 30
0
  0
LINE
  8
LAYER_1
 10
341.8503
 20
-18.5614
 11
343.3907
 21
-18.5614
  0
LINE
  8
LAYER_1
 10
343.3907
 20
-18.5614
 11
345.4982
 21
-23.0789
  0
LINE
  8
LAYER_1
 10
345.4982
 20
-23.0789
 11
345.4982
 21
-22.3097
  0
LINE
  8
LAYER_1
 10
345.4982
 20
-22.3097
 11
347.0408
 21
-22.3097
  0
LINE
  8
LAYER_1
 10
347.0408
 20
-22.3097
 11
347.0408
 21
-24.6193
  0
LINE
  8
LAYER_1
 10
347.0408
 20
-24.6193
 11
344.733
 21
-24.6193
  0
LINE
  8
LAYER_1
 10
344.733
 20
-24.6193
 11
343.3867
 21
-21.7969
  0
LINE
  8
LAYER_1
 10
343.3867
 20
-21.7969
 11
343.3867
 21
-24.6193
  0
LINE
  8
LAYER_1
 10
343.3867
 20
-24.6193
 11
341.8503
 21
-24.6193
  0
LINE
  8
LAYER_1
 10
341.8503
 20
-24.6193
 11
341.8503
 21
-18.5614
  0
INSERT
  8
LAYER_1
  2
AIGNBL01020009
 10
0
 20
0
 30
0
  0
ARC
  8
LAYER_1
 10
395.5786
 20
-22.242
 40
1.9913
 50
311.8583482
 51
336.6658108
  0
ARC
  8
LAYER_1
 10
395.1697
 20
-22.0384
 40
2.4475
 50
336.0816629
 51
355.0451577
  0
LINE
  8
LAYER_1
 10
397.6081
 20
-22.2498
 11
397.6081
 21
-19.0493
  0
LINE
  8
LAYER_1
 10
397.6081
 20
-19.0493
 11
396.4218
 21
-19.0493
  0
LINE
  8
LAYER_1
 10
396.4218
 20
-19.0493
 11
396.4218
 21
-21.9151
  0
ARC
  8
LAYER_1
 10
394.9043
 20
-21.8743
 40
1.5181
 50
331.8997994
 51
358.4617397
  0
ARC
  8
LAYER_1
 10
395.693
 20
-22.2197
 40
0.6631
 50
317.1783112
 51
326.1141448
  0
ARC
  8
LAYER_1
 10
394.7472
 20
-21.2653
 40
2.0063
 50
296.3348518
 51
315.5462544
  0
LINE
  8
LAYER_1
 10
395.6372
 20
-23.0634
 11
395.6372
 21
-24.2581
  0
ARC
  8
LAYER_1
 10
395.6875
 20
-23.1227
 40
1.1365
 50
267.4610933
 51
280.8274917
  0
ARC
  8
LAYER_1
 10
395.5637
 20
-22.3867
 40
1.8828
 50
280.3224193
 51
303.5060525
  0
ARC
  8
LAYER_1
 10
395.2774
 20
-21.8976
 40
2.4488
 50
302.7749121
 51
311.7314667
  0
ARC
  8
LAYER_1
 10
383.8143
 20
-21.2369
 40
1.9121
 50
200.4586691
 51
212.6743406
  0
ARC
  8
LAYER_1
 10
360.786
 20
-29.6321
 40
22.5988
 50
19.99339328
 51
22.95988574
  0
ARC
  8
LAYER_1
 10
378.5896
 20
-22.195
 40
3.306
 50
24.64219126
 51
41.47959493
  0
ARC
  8
LAYER_1
 10
379.6635
 20
-21.3145
 40
1.9189
 50
43.02136381
 51
66.4525374
  0
ARC
  8
LAYER_1
 10
379.7013
 20
-21.2722
 40
1.8651
 50
66.99773131
 51
74.27463074
  0
ARC
  8
LAYER_1
 10
379.3508
 20
-22.5666
 40
3.2061
 50
74.51486529
 51
94.05328003
  0
ARC
  8
LAYER_1
 10
379.392
 20
-23.4582
 40
4.0984
 50
93.74732144
 51
109.4959663
  0
ARC
  8
LAYER_1
 10
379.2715
 20
-23.2493
 40
3.8615
 50
108.8440188
 51
117.778427
  0
ARC
  8
LAYER_1
 10
368.4435
 20
-19.7136
 40
9.0291
 50
353.3550611
 51
359.2434011
  0
ARC
  8
LAYER_1
 10
374.5547
 20
-20.4782
 40
2.871
 50
340.8460147
 51
354.3997743
  0
ARC
  8
LAYER_1
 10
375.9411
 20
-20.8643
 40
1.4374
 50
308.1903864
 51
337.2498508
  0
ARC
  8
LAYER_1
 10
376.1421
 20
-21.1609
 40
1.0804
 50
298.9353614
 51
309.5365615
  0
LINE
  8
LAYER_1
 10
376.6648
 20
-22.1064
 11
376.6648
 21
-23.3788
  0
ARC
  8
LAYER_1
 10
376.0891
 20
-20.8092
 40
2.6333
 50
282.6275833
 51
311.7894288
  0
ARC
  8
LAYER_1
 10
376.7045
 20
-21.5914
 40
1.6412
 50
313.9705366
 51
325.1050386
  0
ARC
  8
LAYER_1
 10
376.0318
 20
-21.1669
 40
2.4361
 50
325.9665116
 51
337.2414308
  0
ARC
  8
LAYER_1
 10
374.4028
 20
-20.4763
 40
4.2054
 50
337.1515
 51
344.9151496
  0
ARC
  8
LAYER_1
 10
372.508
 20
-19.9471
 40
6.1727
 50
344.7490067
 51
353.251799
  0
ARC
  8
LAYER_1
 10
379.4321
 20
-22.4505
 40
1.9474
 50
90.6180722
 51
114.0681942
  0
ARC
  8
LAYER_1
 10
379.4062
 20
-21.5939
 40
1.0907
 50
61.47511198
 51
89.74572571
  0
ARC
  8
LAYER_1
 10
379.5536
 20
-21.258
 40
0.7258
 50
38.26639682
 51
59.03554648
  0
ARC
  8
LAYER_1
 10
378.9035
 20
-21.7619
 40
1.5484
 50
25.29799707
 51
38.00699175
  0
ARC
  8
LAYER_1
 10
373.9562
 20
-24.0911
 40
7.0166
 50
19.69522535
 51
25.23020823
  0
ARC
  8
LAYER_1
 10
386.9017
 20
-19.5399
 40
6.7059
 50
199.0295477
 51
214.162191
  0
ARC
  8
LAYER_1
 10
385.1443
 20
-20.5956
 40
4.6603
 50
215.5556124
 51
216.3864845
  0
ARC
  8
LAYER_1
 10
383.6414
 20
-21.6698
 40
2.8133
 50
216.9325242
 51
237.9546338
  0
ARC
  8
LAYER_1
 10
383.2161
 20
-22.3141
 40
2.0416
 50
238.4756375
 51
260.7148979
  0
ARC
  8
LAYER_1
 10
383.0148
 20
-23.1941
 40
1.1421
 50
263.563436
 51
265.8892951
  0
LINE
  8
LAYER_1
 10
382.9329
 20
-24.3332
 11
382.9329
 21
-22.9742
  0
ARC
  8
LAYER_1
 10
383.2995
 20
-22.147
 40
0.9048
 50
229.9708589
 51
246.0997112
  0
ARC
  8
LAYER_1
 10
384.373
 20
-20.8366
 40
2.5987
 50
213.4542661
 51
230.4296508
  0
LINE
  8
LAYER_1
 10
382.0461
 20
-19.8796
 11
381.4305
 21
-19.8796
  0
LINE
  8
LAYER_1
 10
381.4305
 20
-19.8796
 11
381.2715
 21
-18.8814
  0
LINE
  8
LAYER_1
 10
381.2715
 20
-18.8814
 11
381.8879
 21
-18.8814
  0
LINE
  8
LAYER_1
 10
381.8879
 20
-18.8814
 11
382.0461
 21
-19.8796
  0
LINE
  8
LAYER_1
 10
382.9749
 20
-19.8796
 11
382.3589
 21
-19.8796
  0
LINE
  8
LAYER_1
 10
382.3589
 20
-19.8796
 11
382.2003
 21
-18.8814
  0
LINE
  8
LAYER_1
 10
382.2003
 20
-18.8814
 11
382.8166
 21
-18.8814
  0
LINE
  8
LAYER_1
 10
382.8166
 20
-18.8814
 11
382.9749
 21
-19.8796
  0
ARC
  8
LAYER_1
 10
383.3015
 20
-19.5631
 40
1.2594
 50
294.8475139
 51
325.7683798
  0
ARC
  8
LAYER_1
 10
383.5429
 20
-20.0819
 40
0.6872
 50
280.6862974
 51
294.7611954
  0
LINE
  8
LAYER_1
 10
383.6703
 20
-20.7571
 11
383.6703
 21
-22.0072
  0
ARC
  8
LAYER_1
 10
383.344
 20
-19.5706
 40
2.4583
 50
277.6270469
 51
307.9992312
  0
ARC
  8
LAYER_1
 10
383.7418
 20
-20.2045
 40
1.7156
 50
310.5659115
 51
312.159519
  0
ARC
  8
LAYER_1
 10
383.2691
 20
-19.7509
 40
2.3696
 50
313.2689086
 51
336.1337121
  0
ARC
  8
LAYER_1
 10
382.5058
 20
-19.297
 40
3.2531
 50
334.2618182
 51
342.7246342
  0
LINE
  8
LAYER_1
 10
385.6121
 20
-20.263
 11
388.0392
 21
-20.263
  0
ARC
  8
LAYER_1
 10
383.9739
 20
-20.4761
 40
4.0709
 50
346.9044131
 51
3.000125902
  0
ARC
  8
LAYER_1
 10
385.279
 20
-20.7849
 40
2.7298
 50
327.7047814
 51
347.011647
  0
ARC
  8
LAYER_1
 10
386.0741
 20
-21.2402
 40
1.8149
 50
312.9877944
 51
326.444538
  0
ARC
  8
LAYER_1
 10
386.118
 20
-21.2469
 40
1.7802
 50
298.6760348
 51
312.1010268
  0
ARC
  8
LAYER_1
 10
385.675
 20
-20.4334
 40
2.7066
 50
288.7190695
 51
298.639295
  0
ARC
  8
LAYER_1
 10
385.0225
 20
-18.4568
 40
4.788
 50
273.6024816
 51
288.5224779
  0
ARC
  8
LAYER_1
 10
384.7172
 20
-16.1999
 40
7.0615
 50
268.3271271
 51
274.9242143
  0
LINE
  8
LAYER_1
 10
384.5111
 20
-23.2584
 11
384.5111
 21
-24.3879
  0
ARC
  8
LAYER_1
 10
384.9222
 20
-16.1363
 40
8.2618
 50
267.1475499
 51
278.4142478
  0
ARC
  8
LAYER_1
 10
385.3438
 20
-18.8538
 40
5.5119
 50
278.2131806
 51
291.6024907
  0
ARC
  8
LAYER_1
 10
386.2678
 20
-21.293
 40
2.9041
 50
292.3703177
 51
310.8518436
  0
ARC
  8
LAYER_1
 10
386.8541
 20
-22.0381
 40
1.9575
 50
312.1363704
 51
321.4360617
  0
ARC
  8
LAYER_1
 10
386.3054
 20
-21.2741
 40
2.8742
 50
316.3403134
 51
335.9447601
  0
ARC
  8
LAYER_1
 10
384.9293
 20
-20.6215
 40
4.3969
 50
335.488256
 51
350.554217
  0
ARC
  8
LAYER_1
 10
382.2717
 20
-20.0996
 40
7.1046
 50
349.9195385
 51
2.135290941
  0
ARC
  8
LAYER_1
 10
382.2698
 20
-20.0083
 40
7.1036
 50
1.398744845
 51
7.163066818
  0
LINE
  8
LAYER_1
 10
389.318
 20
-19.1225
 11
384.6318
 21
-19.1225
  0
ARC
  8
LAYER_1
 10
379.5156
 20
-18.5727
 40
5.1457
 50
346.1162239
 51
353.8662748
  0
ARC
  8
LAYER_1
 10
382.4971
 20
-19.34
 40
2.0674
 50
333.2186381
 51
346.9319523
  0
ARC
  8
LAYER_1
 10
377.3202
 20
-106.1806
 40
86.8093
 50
78.78738714
 51
80.56602592
  0
LINE
  8
LAYER_1
 10
391.5492
 20
-20.5454
 11
391.5492
 21
-18.9096
  0
LINE
  8
LAYER_1
 10
391.5492
 20
-18.9096
 11
390.2519
 21
-18.9096
  0
LINE
  8
LAYER_1
 10
390.2519
 20
-18.9096
 11
390.2519
 21
-24.3878
  0
LINE
  8
LAYER_1
 10
390.2519
 20
-24.3878
 11
391.5492
 21
-24.3878
  0
LINE
  8
LAYER_1
 10
391.5492
 20
-24.3878
 11
391.5492
 21
-21.7936
  0
ARC
  8
LAYER_1
 10
391.7683
 20
-24.3614
 40
2.5772
 50
85.26865546
 51
94.87746043
  0
ARC
  8
LAYER_1
 10
391.5033
 20
-28.0085
 40
6.2338
 50
76.32266484
 51
85.6060529
  0
ARC
  8
LAYER_1
 10
382.6381
 20
-65.1085
 40
44.3783
 50
73.58287722
 51
76.52742234
  0
LINE
  8
LAYER_1
 10
395.1806
 20
-22.5396
 11
395.1806
 21
-21.2884
  0
ARC
  8
LAYER_1
 10
391.9699
 20
-31.4121
 40
10.6207
 50
72.40350339
 51
77.87703898
  0
ARC
  8
LAYER_1
 10
398.8448
 20
-20.9171
 40
3.2368
 50
288.2682375
 51
307.5749128
  0
ARC
  8
LAYER_1
 10
398.3613
 20
-19.5973
 40
4.6418
 50
274.0145895
 51
288.8290898
  0
ARC
  8
LAYER_1
 10
398.3613
 20
-20.3924
 40
3.8491
 50
268.360011
 51
274.8439918
  0
LINE
  8
LAYER_1
 10
398.2511
 20
-24.2399
 11
398.2511
 21
-18.8434
  0
LINE
  8
LAYER_1
 10
398.2511
 20
-18.8434
 11
399.5399
 21
-18.8434
  0
LINE
  8
LAYER_1
 10
399.5399
 20
-18.8434
 11
399.5399
 21
-22.8383
  0
ARC
  8
LAYER_1
 10
399.4517
 20
-22.1335
 40
0.7103
 50
277.1314049
 51
295.958207
  0
ARC
  8
LAYER_1
 10
399.2347
 20
-21.686
 40
1.2076
 50
295.9193969
 51
325.4807177
  0
ARC
  8
LAYER_1
 10
398.8695
 20
-21.3577
 40
1.6958
 50
323.3344126
 51
327.8455613
  0
ARC
  8
LAYER_1
 10
399.1066
 20
-21.533
 40
1.402
 50
328.7531989
 51
343.565724
  0
ARC
  8
LAYER_1
 10
397.8941
 20
-21.1698
 40
2.6676
 50
343.4517323
 51
352.9550404
  0
ARC
  8
LAYER_1
 10
395.8265
 20
-20.9078
 40
4.7519
 50
352.8778474
 51
4.074282284
  0
LINE
  8
LAYER_1
 10
400.5663
 20
-20.5702
 11
401.7518
 21
-20.5702
  0
ARC
  8
LAYER_1
 10
396.0073
 20
-20.8036
 40
5.7492
 50
348.7700242
 51
2.327056706
  0
ARC
  8
LAYER_1
 10
398.1033
 20
-21.2258
 40
3.6112
 50
332.2787231
 51
348.8637636
  0
ARC
  8
LAYER_1
 10
399.5807
 20
-21.96
 40
1.9622
 50
309.1155271
 51
331.1884291
  0
ENDBLK
  0
BLOCK
  8
LAYER_1
  2
AIGNBL0101000A
 70
64
 10
0
 20
0
 30
0
  3
AIGNBL0101000A
  0
INSERT
  8
LAYER_1
  2
AIGNBL0102000B
 10
0
 20
0
 30
0
  0
INSERT
  8
LAYER_1
  2
AIGNBL0102000C
 10
0
 20
0
 30
0
  0
INSERT
  8
LAYER_1
  2
AIGNBL0102000D
 10
0
 20
0
 30
0
  0
INSERT
  8
LAYER_1
  2
AIGNBL0102000E
 10
0
 20
0
 30
0
  0
INSERT
  8
LAYER_1
  2
AIGNBL0102000F
 10
0
 20
0
 30
0
  0
INSERT
  8
LAYER_1
  2
AIGNBL01020010
 10
0
 20
0
 30
0
  0
INSERT
  8
LAYER_1
  2
AIGNBL01020011
 10
0
 20
0
 30
0
  0
INSERT
  8
LAYER_1
  2
AIGNBL01020012
 10
0
 20
0
 30
0
  0
INSERT
  8
LAYER_1
  2
AIGNBL01020013
 10
0
 20
0
 30
0
  0
INSERT
  8
LAYER_1
  2
AIGNBL01020014
 10
0
 20
0
 30
0
  0
INSERT
  8
LAYER_1
  2
AIGNBL01020015
 10
0
 20
0
 30
0
  0
INSERT
  8
LAYER_1
  2
AIGNBL01020016
 10
0
 20
0
 30
0
  0
INSERT
  8
LAYER_1
  2
AIGNBL01020017
 10
0
 20
0
 30
0
  0
INSERT
  8
LAYER_1
  2
AIGNBL01020018
 10
0
 20
0
 30
0
  0
INSERT
  8
LAYER_1
  2
AIGNBL01020019
 10
0
 20
0
 30
0
  0
INSERT
  8
LAYER_1
  2
AIGNBL0102001A
 10
0
 20
0
 30
0
  0
INSERT
  8
LAYER_1
  2
AIGNBL0102001B
 10
0
 20
0
 30
0
  0
INSERT
  8
LAYER_1
  2
AIGNBL0102001C
 10
0
 20
0
 30
0
  0
INSERT
  8
LAYER_1
  2
AIGNBL0102001D
 10
0
 20
0
 30
0
  0
INSERT
  8
LAYER_1
  2
AIGNBL0102001E
 10
0
 20
0
 30
0
  0
INSERT
  8
LAYER_1
  2
AIGNBL0102001F
 10
0
 20
0
 30
0
  0
INSERT
  8
LAYER_1
  2
AIGNBL01020020
 10
0
 20
0
 30
0
  0
ENDBLK
  0
BLOCK
  8
LAYER_2
  2
AIGNBL02010002
 70
64
 10
0
 20
0
 30
0
  3
AIGNBL02010002
  0
LINE
  8
LAYER_2
 10
217.605
 20
163.953
 11
285.605
 21
163.953
  0
LINE
  8
LAYER_2
 10
285.605
 20
163.953
 11
285.605
 21
43.953
  0
LINE
  8
LAYER_2
 10
285.605
 20
43.953
 11
217.605
 21
43.953
  0
LINE
  8
LAYER_2
 10
217.605
 20
43.953
 11
217.605
 21
163.953
  0
ENDBLK
  0
BLOCK
  8
LAYER_2
  2
AIGNBL02010003
 70
64
 10
0
 20
0
 30
0
  3
AIGNBL02010003
  0
LINE
  8
LAYER_2
 10
217.605
 20
163.953
 11
219.805
 21
163.953
  0
ENDBLK
  0
BLOCK
  8
LAYER_2
  2
AIGNBL02010004
 70
64
 10
0
 20
0
 30
0
  3
AIGNBL02010004
  0
LINE
  8
LAYER_2
 10
219.805
 20
163.953
 11
219.805
 21
43.953
  0
ENDBLK
  0
BLOCK
  8
LAYER_2
  2
AIGNBL02010005
 70
64
 10
0
 20
0
 30
0
  3
AIGNBL02010005
  0
LINE
  8
LAYER_2
 10
285.605
 20
163.953
 11
283.405
 21
163.953
  0
ENDBLK
  0
BLOCK
  8
LAYER_2
  2
AIGNBL02010006
 70
64
 10
0
 20
0
 30
0
  3
AIGNBL02010006
  0
LINE
  8
LAYER_2
 10
283.405
 20
163.953
 11
283.405
 21
43.953
  0
ENDBLK
  0
BLOCK
  8
LAYER_2
  2
AIGNBL02010007
 70
64
 10
0
 20
0
 30
0
  3
AIGNBL02010007
  0
LINE
  8
LAYER_2
 10
219.805
 20
163.953
 11
219.805
 21
137.953
  0
ENDBLK
  0
BLOCK
  8
LAYER_2
  2
AIGNBL02010008
 70
64
 10
0
 20
0
 30
0
  3
AIGNBL02010008
  0
LINE
  8
LAYER_2
 10
219.805
 20
137.953
 11
283.405
 21
137.953
  0
LINE
  8
LAYER_2
 10
283.405
 20
137.953
 11
283.405
 21
69.953
  0
LINE
  8
LAYER_2
 10
283.405
 20
69.953
 11
219.805
 21
69.953
  0
LINE
  8
LAYER_2
 10
219.805
 20
69.953
 11
219.805
 21
137.953
  0
ENDBLK
  0
BLOCK
  8
LAYER_2
  2
AIGNBL02010009
 70
64
 10
0
 20
0
 30
0
  3
AIGNBL02010009
  0
LINE
  8
LAYER_2
 10
229.805
 20
52.953
 11
219.805
 21
52.953
  0
LINE
  8
LAYER_2
 10
219.805
 20
52.953
 11
219.805
 21
43.953
  0
LINE
  8
LAYER_2
 10
219.805
 20
43.953
 11
232.805
 21
43.953
  0
LINE
  8
LAYER_2
 10
232.805
 20
43.953
 11
232.805
 21
52.953
  0
ENDBLK
  0
BLOCK
  8
LAYER_2
  2
AIGNBL0201000A
 70
64
 10
0
 20
0
 30
0
  3
AIGNBL0201000A
  0
LINE
  8
LAYER_2
 10
270.405
 20
52.953
 11
270.405
 21
43.953
  0
LINE
  8
LAYER_2
 10
270.405
 20
43.953
 11
283.405
 21
43.953
  0
LINE
  8
LAYER_2
 10
283.405
 20
43.953
 11
283.405
 21
52.953
  0
LINE
  8
LAYER_2
 10
283.405
 20
52.953
 11
273.405
 21
52.953
  0
ENDBLK
  0
BLOCK
  8
LAYER_2
  2
AIGNBL0201000B
 70
64
 10
0
 20
0
 30
0
  3
AIGNBL0201000B
  0
LINE
  8
LAYER_2
 10
229.805
 20
52.953
 11
229.805
 21
69.953
  0
LINE
  8
LAYER_2
 10
229.805
 20
69.953
 11
232.805
 21
69.953
  0
ENDBLK
  0
BLOCK
  8
LAYER_2
  2
AIGNBL0201000C
 70
64
 10
0
 20
0
 30
0
  3
AIGNBL0201000C
  0
LINE
  8
LAYER_2
 10
232.805
 20
68.2852
 11
232.805
 21
52.953
  0
ENDBLK
  0
BLOCK
  8
LAYER_2
  2
AIGNBL0201000D
 70
64
 10
0
 20
0
 30
0
  3
AIGNBL0201000D
  0
LINE
  8
LAYER_2
 10
270.405
 20
52.953
 11
270.405
 21
68.2852
  0
ENDBLK
  0
BLOCK
  8
LAYER_2
  2
AIGNBL0201000E
 70
64
 10
0
 20
0
 30
0
  3
AIGNBL0201000E
  0
LINE
  8
LAYER_2
 10
273.405
 20
69.953
 11
273.405
 21
52.953
  0
ENDBLK
  0
BLOCK
  8
LAYER_2
  2
AIGNBL0201000F
 70
64
 10
0
 20
0
 30
0
  3
AIGNBL0201000F
  0
LINE
  8
LAYER_2
 10
232.805
 20
68.2852
 11
232.805
 21
43.953
  0
LINE
  8
LAYER_2
 10
232.805
 20
43.953
 11
243.205
 21
43.953
  0
LINE
  8
LAYER_2
 10
243.205
 20
43.953
 11
243.205
 21
69.953
  0
LINE
  8
LAYER_2
 10
243.205
 20
69.953
 11
237.105
 21
69.953
  0
ENDBLK
  0
BLOCK
  8
LAYER_2
  2
AIGNBL02010010
 70
64
 10
0
 20
0
 30
0
  3
AIGNBL02010010
  0
LINE
  8
LAYER_2
 10
243.205
 20
43.953
 11
246.405
 21
43.953
  0
LINE
  8
LAYER_2
 10
246.405
 20
43.953
 11
246.405
 21
69.953
  0
LINE
  8
LAYER_2
 10
246.405
 20
69.953
 11
243.205
 21
69.953
  0
LINE
  8
LAYER_2
 10
243.205
 20
69.953
 11
243.205
 21
43.953
  0
ENDBLK
  0
BLOCK
  8
LAYER_2
  2
AIGNBL02010011
 70
64
 10
0
 20
0
 30
0
  3
AIGNBL02010011
  0
LINE
  8
LAYER_2
 10
246.405
 20
43.953
 11
256.805
 21
43.953
  0
LINE
  8
LAYER_2
 10
256.805
 20
43.953
 11
256.805
 21
69.953
  0
LINE
  8
LAYER_2
 10
256.805
 20
69.953
 11
246.405
 21
69.953
  0
LINE
  8
LAYER_2
 10
246.405
 20
69.953
 11
246.405
 21
43.953
  0
ENDBLK
  0
BLOCK
  8
LAYER_2
  2
AIGNBL02010012
 70
64
 10
0
 20
0
 30
0
  3
AIGNBL02010012
  0
LINE
  8
LAYER_2
 10
256.805
 20
43.953
 11
260.005
 21
43.953
  0
LINE
  8
LAYER_2
 10
260.005
 20
43.953
 11
260.005
 21
69.953
  0
LINE
  8
LAYER_2
 10
260.005
 20
69.953
 11
256.805
 21
69.953
  0
LINE
  8
LAYER_2
 10
256.805
 20
69.953
 11
256.805
 21
43.953
  0
ENDBLK
  0
BLOCK
  8
LAYER_2
  2
AIGNBL02010013
 70
64
 10
0
 20
0
 30
0
  3
AIGNBL02010013
  0
ARC
  8
LAYER_2
 10
224.805
 20
48.453
 40
1.3
 50
90.0000744
 51
179.9999256
  0
ARC
  8
LAYER_2
 10
224.805
 20
48.453
 40
1.3
 50
0.001589274964
 51
89.99841071
  0
ARC
  8
LAYER_2
 10
224.805
 20
48.453
 40
1.3
 50
269.9999257
 51
7.430074012e-005
  0
ARC
  8
LAYER_2
 10
224.805
 20
48.453
 40
1.3
 50
179.9984106
 51
270.0015894
  0
ENDBLK
  0
BLOCK
  8
LAYER_2
  2
AIGNBL02010014
 70
64
 10
0
 20
0
 30
0
  3
AIGNBL02010014
  0
ARC
  8
LAYER_2
 10
278.405
 20
48.453
 40
1.3
 50
90.0000747
 51
179.9999253
  0
ARC
  8
LAYER_2
 10
278.405
 20
48.453
 40
1.3
 50
0.001588979702
 51
89.99841101
  0
ARC
  8
LAYER_2
 10
278.405
 20
48.453
 40
1.3
 50
269.9999254
 51
7.459603672e-005
  0
ARC
  8
LAYER_2
 10
278.405
 20
48.453
 40
1.3
 50
179.9984109
 51
270.0015891
  0
ENDBLK
  0
BLOCK
  8
LAYER_2
  2
AIGNBL02010015
 70
64
 10
0
 20
0
 30
0
  3
AIGNBL02010015
  0
LINE
  8
LAYER_2
 10
219.805
 20
69.953
 11
229.805
 21
69.953
  0
LINE
  8
LAYER_2
 10
229.805
 20
69.953
 11
229.805
 21
61.353
  0
LINE
  8
LAYER_2
 10
229.805
 20
61.353
 11
219.805
 21
61.353
  0
LINE
  8
LAYER_2
 10
219.805
 20
61.353
 11
219.805
 21
69.953
  0
ENDBLK
  0
BLOCK
  8
LAYER_2
  2
AIGNBL02010016
 70
64
 10
0
 20
0
 30
0
  3
AIGNBL02010016
  0
ARC
  8
LAYER_2
 10
224.805
 20
57.153
 40
2.3
 50
90.00004201
 51
179.999958
  0
ARC
  8
LAYER_2
 10
224.805
 20
57.153
 40
2.3
 50
0.0008982746779
 51
89.99910171
  0
ARC
  8
LAYER_2
 10
224.805
 20
57.153
 40
2.3
 50
269.999958
 51
4.197468143e-005
  0
ARC
  8
LAYER_2
 10
224.805
 20
57.153
 40
2.3
 50
179.9991017
 51
270.0008983
  0
ENDBLK
  0
BLOCK
  8
LAYER_2
  2
AIGNBL02010017
 70
64
 10
0
 20
0
 30
0
  3
AIGNBL02010017
  0
LINE
  8
LAYER_2
 10
225.305
 20
57.153
 11
224.305
 21
57.153
  0
ENDBLK
  0
BLOCK
  8
LAYER_2
  2
AIGNBL02010018
 70
64
 10
0
 20
0
 30
0
  3
AIGNBL02010018
  0
LINE
  8
LAYER_2
 10
224.805
 20
57.653
 11
224.805
 21
56.653
  0
ENDBLK
  0
BLOCK
  8
LAYER_2
  2
AIGNBL02010019
 70
64
 10
0
 20
0
 30
0
  3
AIGNBL02010019
  0
ARC
  8
LAYER_2
 10
224.805
 20
65.653
 40
2.6
 50
90.00003714
 51
179.9999628
  0
ARC
  8
LAYER_2
 10
224.805
 20
65.653
 40
2.6
 50
0.0007946069842
 51
89.99920538
  0
ARC
  8
LAYER_2
 10
224.805
 20
65.653
 40
2.6
 50
269.9999629
 51
3.710812128e-005
  0
ARC
  8
LAYER_2
 10
224.805
 20
65.653
 40
2.6
 50
179.9992053
 51
270.0007946
  0
ENDBLK
  0
BLOCK
  8
LAYER_2
  2
AIGNBL0201001A
 70
64
 10
0
 20
0
 30
0
  3
AIGNBL0201001A
  0
LINE
  8
LAYER_2
 10
224.305
 20
66.153
 11
224.305
 21
67.153
  0
LINE
  8
LAYER_2
 10
224.305
 20
67.153
 11
225.305
 21
67.153
  0
LINE
  8
LAYER_2
 10
225.305
 20
67.153
 11
225.305
 21
66.153
  0
ENDBLK
  0
BLOCK
  8
LAYER_2
  2
AIGNBL0201001B
 70
64
 10
0
 20
0
 30
0
  3
AIGNBL0201001B
  0
LINE
  8
LAYER_2
 10
225.305
 20
65.153
 11
225.305
 21
64.153
  0
LINE
  8
LAYER_2
 10
225.305
 20
64.153
 11
224.305
 21
64.153
  0
LINE
  8
LAYER_2
 10
224.305
 20
64.153
 11
224.305
 21
65.153
  0
ENDBLK
  0
BLOCK
  8
LAYER_2
  2
AIGNBL0201001C
 70
64
 10
0
 20
0
 30
0
  3
AIGNBL0201001C
  0
LINE
  8
LAYER_2
 10
224.305
 20
66.153
 11
223.305
 21
66.153
  0
LINE
  8
LAYER_2
 10
223.305
 20
66.153
 11
223.305
 21
65.153
  0
LINE
  8
LAYER_2
 10
223.305
 20
65.153
 11
224.305
 21
65.153
  0
ENDBLK
  0
BLOCK
  8
LAYER_2
  2
AIGNBL0201001D
 70
64
 10
0
 20
0
 30
0
  3
AIGNBL0201001D
  0
LINE
  8
LAYER_2
 10
225.305
 20
65.153
 11
226.305
 21
65.153
  0
LINE
  8
LAYER_2
 10
226.305
 20
65.153
 11
226.305
 21
66.153
  0
LINE
  8
LAYER_2
 10
226.305
 20
66.153
 11
225.305
 21
66.153
  0
ENDBLK
  0
BLOCK
  8
LAYER_2
  2
AIGNBL0201001E
 70
64
 10
0
 20
0
 30
0
  3
AIGNBL0201001E
  0
LINE
  8
LAYER_2
 10
232.805
 20
63.153
 11
243.205
 21
63.153
  0
ENDBLK
  0
BLOCK
  8
LAYER_2
  2
AIGNBL0201001F
 70
64
 10
0
 20
0
 30
0
  3
AIGNBL0201001F
  0
LINE
  8
LAYER_2
 10
243.205
 20
51.153
 11
232.805
 21
51.153
  0
ENDBLK
  0
BLOCK
  8
LAYER_2
  2
AIGNBL02010020
 70
64
 10
0
 20
0
 30
0
  3
AIGNBL02010020
  0
LINE
  8
LAYER_2
 10
246.405
 20
63.153
 11
256.805
 21
63.153
  0
ENDBLK
  0
BLOCK
  8
LAYER_2
  2
AIGNBL02010021
 70
64
 10
0
 20
0
 30
0
  3
AIGNBL02010021
  0
LINE
  8
LAYER_2
 10
256.805
 20
51.153
 11
246.405
 21
51.153
  0
ENDBLK
  0
BLOCK
  8
LAYER_2
  2
AIGNBL02010022
 70
64
 10
0
 20
0
 30
0
  3
AIGNBL02010022
  0
LINE
  8
LAYER_2
 10
260.005
 20
63.153
 11
270.405
 21
63.153
  0
ENDBLK
  0
BLOCK
  8
LAYER_2
  2
AIGNBL02010023
 70
64
 10
0
 20
0
 30
0
  3
AIGNBL02010023
  0
LINE
  8
LAYER_2
 10
270.405
 20
51.153
 11
260.005
 21
51.153
  0
ENDBLK
  0
BLOCK
  8
LAYER_2
  2
AIGNBL02010024
 70
64
 10
0
 20
0
 30
0
  3
AIGNBL02010024
  0
LINE
  8
LAYER_2
 10
273.405
 20
69.953
 11
283.405
 21
69.953
  0
LINE
  8
LAYER_2
 10
283.405
 20
69.953
 11
283.405
 21
61.353
  0
LINE
  8
LAYER_2
 10
283.405
 20
61.353
 11
273.405
 21
61.353
  0
LINE
  8
LAYER_2
 10
273.405
 20
61.353
 11
273.405
 21
69.953
  0
ENDBLK
  0
BLOCK
  8
LAYER_2
  2
AIGNBL02010025
 70
64
 10
0
 20
0
 30
0
  3
AIGNBL02010025
  0
ARC
  8
LAYER_2
 10
278.405
 20
57.153
 40
2.3
 50
90.00004218
 51
179.9999578
  0
ARC
  8
LAYER_2
 10
278.405
 20
57.153
 40
2.3
 50
0.0008981077868
 51
89.99910188
  0
ARC
  8
LAYER_2
 10
278.405
 20
57.153
 40
2.3
 50
269.9999579
 51
4.214158351e-005
  0
ARC
  8
LAYER_2
 10
278.405
 20
57.153
 40
2.3
 50
179.9991018
 51
270.0008981
  0
ENDBLK
  0
BLOCK
  8
LAYER_2
  2
AIGNBL02010026
 70
64
 10
0
 20
0
 30
0
  3
AIGNBL02010026
  0
LINE
  8
LAYER_2
 10
278.905
 20
57.153
 11
277.905
 21
57.153
  0
ENDBLK
  0
BLOCK
  8
LAYER_2
  2
AIGNBL02010027
 70
64
 10
0
 20
0
 30
0
  3
AIGNBL02010027
  0
LINE
  8
LAYER_2
 10
278.405
 20
57.653
 11
278.405
 21
56.653
  0
ENDBLK
  0
BLOCK
  8
LAYER_2
  2
AIGNBL02010028
 70
64
 10
0
 20
0
 30
0
  3
AIGNBL02010028
  0
ARC
  8
LAYER_2
 10
278.405
 20
65.653
 40
2.6
 50
90.00003729
 51
179.9999627
  0
ARC
  8
LAYER_2
 10
278.405
 20
65.653
 40
2.6
 50
0.000794459349
 51
89.99920553
  0
ARC
  8
LAYER_2
 10
278.405
 20
65.653
 40
2.6
 50
269.9999628
 51
3.725576497e-005
  0
ARC
  8
LAYER_2
 10
278.405
 20
65.653
 40
2.6
 50
179.9992055
 51
270.0007945
  0
ENDBLK
  0
BLOCK
  8
LAYER_2
  2
AIGNBL02010029
 70
64
 10
0
 20
0
 30
0
  3
AIGNBL02010029
  0
LINE
  8
LAYER_2
 10
277.905
 20
66.153
 11
277.905
 21
67.153
  0
LINE
  8
LAYER_2
 10
277.905
 20
67.153
 11
278.905
 21
67.153
  0
LINE
  8
LAYER_2
 10
278.905
 20
67.153
 11
278.905
 21
66.153
  0
ENDBLK
  0
BLOCK
  8
LAYER_2
  2
AIGNBL0201002A
 70
64
 10
0
 20
0
 30
0
  3
AIGNBL0201002A
  0
LINE
  8
LAYER_2
 10
278.905
 20
65.153
 11
278.905
 21
64.153
  0
LINE
  8
LAYER_2
 10
278.905
 20
64.153
 11
277.905
 21
64.153
  0
LINE
  8
LAYER_2
 10
277.905
 20
64.153
 11
277.905
 21
65.153
  0
ENDBLK
  0
BLOCK
  8
LAYER_2
  2
AIGNBL0201002B
 70
64
 10
0
 20
0
 30
0
  3
AIGNBL0201002B
  0
LINE
  8
LAYER_2
 10
277.905
 20
66.153
 11
276.905
 21
66.153
  0
LINE
  8
LAYER_2
 10
276.905
 20
66.153
 11
276.905
 21
65.153
  0
LINE
  8
LAYER_2
 10
276.905
 20
65.153
 11
277.905
 21
65.153
  0
ENDBLK
  0
BLOCK
  8
LAYER_2
  2
AIGNBL0201002C
 70
64
 10
0
 20
0
 30
0
  3
AIGNBL0201002C
  0
LINE
  8
LAYER_2
 10
278.905
 20
65.153
 11
279.905
 21
65.153
  0
LINE
  8
LAYER_2
 10
279.905
 20
65.153
 11
279.905
 21
66.153
  0
LINE
  8
LAYER_2
 10
279.905
 20
66.153
 11
278.905
 21
66.153
  0
ENDBLK
  0
BLOCK
  8
LAYER_2
  2
AIGNBL0201002D
 70
64
 10
0
 20
0
 30
0
  3
AIGNBL0201002D
  0
ARC
  8
LAYER_2
 10
238.005
 20
57.153
 40
4
 50
90.00002418
 51
179.9999758
  0
ARC
  8
LAYER_2
 10
238.005
 20
57.153
 40
4
 50
0.0005164927402
 51
89.9994835
  0
ARC
  8
LAYER_2
 10
238.005
 20
57.153
 40
4
 50
269.9999759
 51
2.41575104e-005
  0
ARC
  8
LAYER_2
 10
238.005
 20
57.153
 40
4
 50
179.9994835
 51
270.0005165
  0
ENDBLK
  0
BLOCK
  8
LAYER_2
  2
AIGNBL0201002E
 70
64
 10
0
 20
0
 30
0
  3
AIGNBL0201002E
  0
ARC
  8
LAYER_2
 10
251.605
 20
57.153
 40
4
 50
90.0000242
 51
179.9999758
  0
ARC
  8
LAYER_2
 10
251.605
 20
57.153
 40
4
 50
0.0005164683864
 51
89.99948352
  0
ARC
  8
LAYER_2
 10
251.605
 20
57.153
 40
4
 50
269.9999758
 51
2.418186502e-005
  0
ARC
  8
LAYER_2
 10
251.605
 20
57.153
 40
4
 50
179.9994835
 51
270.0005165
  0
ENDBLK
  0
BLOCK
  8
LAYER_2
  2
AIGNBL0201002F
 70
64
 10
0
 20
0
 30
0
  3
AIGNBL0201002F
  0
ARC
  8
LAYER_2
 10
265.205
 20
57.153
 40
4
 50
90.00002423
 51
179.9999757
  0
ARC
  8
LAYER_2
 10
265.205
 20
57.153
 40
4
 50
0.0005164440327
 51
89.99948354
  0
ARC
  8
LAYER_2
 10
265.205
 20
57.153
 40
4
 50
269.9999758
 51
2.420621964e-005
  0
ARC
  8
LAYER_2
 10
265.205
 20
57.153
 40
4
 50
179.9994835
 51
270.0005165
  0
ENDBLK
  0
BLOCK
  8
LAYER_2
  2
AIGNBL02010030
 70
64
 10
0
 20
0
 30
0
  3
AIGNBL02010030
  0
LINE
  8
LAYER_2
 10
264.605
 20
57.753
 11
262.805
 21
57.753
  0
LINE
  8
LAYER_2
 10
262.805
 20
57.753
 11
262.805
 21
56.553
  0
LINE
  8
LAYER_2
 10
262.805
 20
56.553
 11
264.605
 21
56.553
  0
ENDBLK
  0
BLOCK
  8
LAYER_2
  2
AIGNBL02010031
 70
64
 10
0
 20
0
 30
0
  3
AIGNBL02010031
  0
LINE
  8
LAYER_2
 10
265.805
 20
56.553
 11
267.605
 21
56.553
  0
LINE
  8
LAYER_2
 10
267.605
 20
56.553
 11
267.605
 21
57.753
  0
LINE
  8
LAYER_2
 10
267.605
 20
57.753
 11
265.805
 21
57.753
  0
ENDBLK
  0
BLOCK
  8
LAYER_2
  2
AIGNBL02010032
 70
64
 10
0
 20
0
 30
0
  3
AIGNBL02010032
  0
LINE
  8
LAYER_2
 10
265.805
 20
56.553
 11
265.805
 21
54.753
  0
LINE
  8
LAYER_2
 10
265.805
 20
54.753
 11
264.605
 21
54.753
  0
LINE
  8
LAYER_2
 10
264.605
 20
54.753
 11
264.605
 21
56.553
  0
ENDBLK
  0
BLOCK
  8
LAYER_2
  2
AIGNBL02010033
 70
64
 10
0
 20
0
 30
0
  3
AIGNBL02010033
  0
LINE
  8
LAYER_2
 10
264.605
 20
57.753
 11
264.605
 21
59.553
  0
LINE
  8
LAYER_2
 10
264.605
 20
59.553
 11
265.805
 21
59.553
  0
LINE
  8
LAYER_2
 10
265.805
 20
59.553
 11
265.805
 21
57.753
  0
ENDBLK
  0
BLOCK
  8
LAYER_2
  2
AIGNBL02010034
 70
64
 10
0
 20
0
 30
0
  3
AIGNBL02010034
  0
LINE
  8
LAYER_2
 10
219.805
 20
69.953
 11
230.505
 21
69.953
  0
ENDBLK
  0
BLOCK
  8
LAYER_2
  2
AIGNBL02010035
 70
64
 10
0
 20
0
 30
0
  3
AIGNBL02010035
  0
LINE
  8
LAYER_2
 10
283.405
 20
69.953
 11
273.405
 21
69.953
  0
ENDBLK
  0
BLOCK
  8
LAYER_2
  2
AIGNBL02010036
 70
64
 10
0
 20
0
 30
0
  3
AIGNBL02010036
  0
ARC
  8
LAYER_2
 10
231.5374
 20
69.9635
 40
1.0325
 50
180.5847858
 51
214.9915542
  0
ARC
  8
LAYER_2
 10
232.1668
 20
70.3802
 40
1.7871
 50
214.364013
 51
238.5175981
  0
ARC
  8
LAYER_2
 10
233.1197
 20
71.7749
 40
3.4752
 50
237.1287181
 51
254.6041257
  0
ARC
  8
LAYER_2
 10
233.7151
 20
73.6068
 40
5.4001
 50
253.6736527
 51
266.9319908
  0
ARC
  8
LAYER_2
 10
233.8048
 20
74.4937
 40
6.2907
 50
266.5483296
 51
270.0018018
  0
ARC
  8
LAYER_2
 10
233.8195
 20
74.0995
 40
5.8965
 50
269.859098
 51
283.896592
  0
ARC
  8
LAYER_2
 10
234.2432
 20
72.354
 40
4.1003
 50
284.0070637
 51
299.6904355
  0
ARC
  8
LAYER_2
 10
235.1799
 20
70.6687
 40
2.1725
 50
300.2449527
 51
321.3313159
  0
ARC
  8
LAYER_2
 10
235.9605
 20
70.007
 40
1.1499
 50
322.7717944
 51
351.6809127
  0
ARC
  8
LAYER_2
 10
236.1492
 20
69.9536
 40
0.9558
 50
353.2139177
 51
359.9669148
  0
ENDBLK
  0
BLOCK
  8
LAYER_2
  2
AIGNBL02010037
 70
64
 10
0
 20
0
 30
0
  3
AIGNBL02010037
  0
ARC
  8
LAYER_2
 10
267.1374
 20
69.9635
 40
1.0325
 50
180.5847858
 51
214.9915542
  0
ARC
  8
LAYER_2
 10
267.7668
 20
70.3802
 40
1.7871
 50
214.364013
 51
238.5175981
  0
ARC
  8
LAYER_2
 10
268.7197
 20
71.7749
 40
3.4752
 50
237.1287181
 51
254.6041257
  0
ARC
  8
LAYER_2
 10
269.3151
 20
73.6068
 40
5.4001
 50
253.6736527
 51
266.9319908
  0
ARC
  8
LAYER_2
 10
269.4048
 20
74.4937
 40
6.2907
 50
266.5483296
 51
270.0018018
  0
ARC
  8
LAYER_2
 10
269.4195
 20
74.0995
 40
5.8965
 50
269.859098
 51
283.896592
  0
ARC
  8
LAYER_2
 10
269.8432
 20
72.354
 40
4.1003
 50
284.0070637
 51
299.6904355
  0
ARC
  8
LAYER_2
 10
270.7799
 20
70.6687
 40
2.1725
 50
300.2449527
 51
321.3313159
  0
ARC
  8
LAYER_2
 10
271.5605
 20
70.007
 40
1.1499
 50
322.7717944
 51
351.6809127
  0
ARC
  8
LAYER_2
 10
271.7492
 20
69.9536
 40
0.9558
 50
353.2139177
 51
359.9669148
  0
ENDBLK
  0
BLOCK
  8
LAYER_2
  2
AIGNBL02010038
 70
64
 10
0
 20
0
 30
0
  3
AIGNBL02010038
  0
LINE
  8
LAYER_2
 10
229.805
 20
154.953
 11
219.805
 21
154.953
  0
LINE
  8
LAYER_2
 10
219.805
 20
154.953
 11
219.805
 21
163.953
  0
LINE
  8
LAYER_2
 10
219.805
 20
163.953
 11
232.805
 21
163.953
  0
LINE
  8
LAYER_2
 10
232.805
 20
163.953
 11
232.805
 21
154.953
  0
ENDBLK
  0
BLOCK
  8
LAYER_2
  2
AIGNBL02010039
 70
64
 10
0
 20
0
 30
0
  3
AIGNBL02010039
  0
LINE
  8
LAYER_2
 10
270.405
 20
154.953
 11
270.405
 21
163.953
  0
LINE
  8
LAYER_2
 10
270.405
 20
163.953
 11
283.405
 21
163.953
  0
LINE
  8
LAYER_2
 10
283.405
 20
163.953
 11
283.405
 21
154.953
  0
LINE
  8
LAYER_2
 10
283.405
 20
154.953
 11
273.405
 21
154.953
  0
ENDBLK
  0
BLOCK
  8
LAYER_2
  2
AIGNBL0201003A
 70
64
 10
0
 20
0
 30
0
  3
AIGNBL0201003A
  0
LINE
  8
LAYER_2
 10
229.805
 20
154.953
 11
229.805
 21
137.953
  0
LINE
  8
LAYER_2
 10
229.805
 20
137.953
 11
232.805
 21
137.953
  0
LINE
  8
LAYER_2
 10
232.805
 20
137.953
 11
232.805
 21
154.953
  0
ENDBLK
  0
BLOCK
  8
LAYER_2
  2
AIGNBL0201003B
 70
64
 10
0
 20
0
 30
0
  3
AIGNBL0201003B
  0
LINE
  8
LAYER_2
 10
270.405
 20
154.953
 11
270.405
 21
137.953
  0
LINE
  8
LAYER_2
 10
270.405
 20
137.953
 11
273.405
 21
137.953
  0
LINE
  8
LAYER_2
 10
273.405
 20
137.953
 11
273.405
 21
154.953
  0
ENDBLK
  0
BLOCK
  8
LAYER_2
  2
AIGNBL0201003C
 70
64
 10
0
 20
0
 30
0
  3
AIGNBL0201003C
  0
LINE
  8
LAYER_2
 10
232.805
 20
163.953
 11
243.205
 21
163.953
  0
LINE
  8
LAYER_2
 10
243.205
 20
163.953
 11
243.205
 21
137.953
  0
LINE
  8
LAYER_2
 10
243.205
 20
137.953
 11
232.805
 21
137.953
  0
LINE
  8
LAYER_2
 10
232.805
 20
137.953
 11
232.805
 21
163.953
  0
ENDBLK
  0
BLOCK
  8
LAYER_2
  2
AIGNBL0201003D
 70
64
 10
0
 20
0
 30
0
  3
AIGNBL0201003D
  0
LINE
  8
LAYER_2
 10
243.205
 20
163.953
 11
246.405
 21
163.953
  0
LINE
  8
LAYER_2
 10
246.405
 20
163.953
 11
246.405
 21
137.953
  0
LINE
  8
LAYER_2
 10
246.405
 20
137.953
 11
243.205
 21
137.953
  0
LINE
  8
LAYER_2
 10
243.205
 20
137.953
 11
243.205
 21
163.953
  0
ENDBLK
  0
BLOCK
  8
LAYER_2
  2
AIGNBL0201003E
 70
64
 10
0
 20
0
 30
0
  3
AIGNBL0201003E
  0
LINE
  8
LAYER_2
 10
246.405
 20
163.953
 11
256.805
 21
163.953
  0
LINE
  8
LAYER_2
 10
256.805
 20
163.953
 11
256.805
 21
137.953
  0
LINE
  8
LAYER_2
 10
256.805
 20
137.953
 11
246.405
 21
137.953
  0
LINE
  8
LAYER_2
 10
246.405
 20
137.953
 11
246.405
 21
163.953
  0
ENDBLK
  0
BLOCK
  8
LAYER_2
  2
AIGNBL0201003F
 70
64
 10
0
 20
0
 30
0
  3
AIGNBL0201003F
  0
LINE
  8
LAYER_2
 10
256.805
 20
163.953
 11
260.005
 21
163.953
  0
LINE
  8
LAYER_2
 10
260.005
 20
163.953
 11
260.005
 21
137.953
  0
LINE
  8
LAYER_2
 10
260.005
 20
137.953
 11
256.805
 21
137.953
  0
LINE
  8
LAYER_2
 10
256.805
 20
137.953
 11
256.805
 21
163.953
  0
ENDBLK
  0
BLOCK
  8
LAYER_2
  2
AIGNBL02010040
 70
64
 10
0
 20
0
 30
0
  3
AIGNBL02010040
  0
ARC
  8
LAYER_2
 10
224.805
 20
159.453
 40
1.3
 50
90.00007379
 51
179.9999262
  0
ARC
  8
LAYER_2
 10
224.805
 20
159.453
 40
1.3
 50
0.001588663459
 51
89.99841132
  0
ARC
  8
LAYER_2
 10
224.805
 20
159.453
 40
1.3
 50
269.9999263
 51
7.368923453e-005
  0
ARC
  8
LAYER_2
 10
224.805
 20
159.453
 40
1.3
 50
179.9984112
 51
270.0015888
  0
ENDBLK
  0
BLOCK
  8
LAYER_2
  2
AIGNBL02010041
 70
64
 10
0
 20
0
 30
0
  3
AIGNBL02010041
  0
ARC
  8
LAYER_2
 10
278.405
 20
159.453
 40
1.3
 50
90.00007408
 51
179.9999259
  0
ARC
  8
LAYER_2
 10
278.405
 20
159.453
 40
1.3
 50
0.001588368197
 51
89.99841162
  0
ARC
  8
LAYER_2
 10
278.405
 20
159.453
 40
1.3
 50
269.999926
 51
7.398453156e-005
  0
ARC
  8
LAYER_2
 10
278.405
 20
159.453
 40
1.3
 50
179.9984115
 51
270.0015885
  0
ENDBLK
  0
BLOCK
  8
LAYER_2
  2
AIGNBL02010042
 70
64
 10
0
 20
0
 30
0
  3
AIGNBL02010042
  0
LINE
  8
LAYER_2
 10
219.805
 20
137.953
 11
229.805
 21
137.953
  0
LINE
  8
LAYER_2
 10
229.805
 20
137.953
 11
229.805
 21
146.553
  0
LINE
  8
LAYER_2
 10
229.805
 20
146.553
 11
219.805
 21
146.553
  0
LINE
  8
LAYER_2
 10
219.805
 20
146.553
 11
219.805
 21
137.953
  0
ENDBLK
  0
BLOCK
  8
LAYER_2
  2
AIGNBL02010043
 70
64
 10
0
 20
0
 30
0
  3
AIGNBL02010043
  0
ARC
  8
LAYER_2
 10
224.805
 20
150.753
 40
2.3
 50
90.00004172
 51
179.9999582
  0
ARC
  8
LAYER_2
 10
224.805
 20
150.753
 40
2.3
 50
0.000897983216
 51
89.99910201
  0
ARC
  8
LAYER_2
 10
224.805
 20
150.753
 40
2.3
 50
269.9999583
 51
4.16832199e-005
  0
ARC
  8
LAYER_2
 10
224.805
 20
150.753
 40
2.3
 50
179.999102
 51
270.000898
  0
ENDBLK
  0
BLOCK
  8
LAYER_2
  2
AIGNBL02010044
 70
64
 10
0
 20
0
 30
0
  3
AIGNBL02010044
  0
LINE
  8
LAYER_2
 10
225.305
 20
150.753
 11
224.305
 21
150.753
  0
ENDBLK
  0
BLOCK
  8
LAYER_2
  2
AIGNBL02010045
 70
64
 10
0
 20
0
 30
0
  3
AIGNBL02010045
  0
LINE
  8
LAYER_2
 10
224.805
 20
150.253
 11
224.805
 21
151.253
  0
ENDBLK
  0
BLOCK
  8
LAYER_2
  2
AIGNBL02010046
 70
64
 10
0
 20
0
 30
0
  3
AIGNBL02010046
  0
ARC
  8
LAYER_2
 10
224.805
 20
142.253
 40
2.6
 50
90.00003693
 51
179.999963
  0
ARC
  8
LAYER_2
 10
224.805
 20
142.253
 40
2.6
 50
0.0007943959634
 51
89.99920559
  0
ARC
  8
LAYER_2
 10
224.805
 20
142.253
 40
2.6
 50
269.9999631
 51
3.6897101e-005
  0
ARC
  8
LAYER_2
 10
224.805
 20
142.253
 40
2.6
 50
179.9992056
 51
270.0007944
  0
ENDBLK
  0
BLOCK
  8
LAYER_2
  2
AIGNBL02010047
 70
64
 10
0
 20
0
 30
0
  3
AIGNBL02010047
  0
LINE
  8
LAYER_2
 10
224.305
 20
141.753
 11
224.305
 21
140.753
  0
LINE
  8
LAYER_2
 10
224.305
 20
140.753
 11
225.305
 21
140.753
  0
LINE
  8
LAYER_2
 10
225.305
 20
140.753
 11
225.305
 21
141.753
  0
ENDBLK
  0
BLOCK
  8
LAYER_2
  2
AIGNBL02010048
 70
64
 10
0
 20
0
 30
0
  3
AIGNBL02010048
  0
LINE
  8
LAYER_2
 10
225.305
 20
142.753
 11
225.305
 21
143.753
  0
LINE
  8
LAYER_2
 10
225.305
 20
143.753
 11
224.305
 21
143.753
  0
LINE
  8
LAYER_2
 10
224.305
 20
143.753
 11
224.305
 21
142.753
  0
ENDBLK
  0
BLOCK
  8
LAYER_2
  2
AIGNBL02010049
 70
64
 10
0
 20
0
 30
0
  3
AIGNBL02010049
  0
LINE
  8
LAYER_2
 10
224.305
 20
141.753
 11
223.305
 21
141.753
  0
LINE
  8
LAYER_2
 10
223.305
 20
141.753
 11
223.305
 21
142.753
  0
LINE
  8
LAYER_2
 10
223.305
 20
142.753
 11
224.305
 21
142.753
  0
ENDBLK
  0
BLOCK
  8
LAYER_2
  2
AIGNBL0201004A
 70
64
 10
0
 20
0
 30
0
  3
AIGNBL0201004A
  0
LINE
  8
LAYER_2
 10
225.305
 20
142.753
 11
226.305
 21
142.753
  0
LINE
  8
LAYER_2
 10
226.305
 20
142.753
 11
226.305
 21
141.753
  0
LINE
  8
LAYER_2
 10
226.305
 20
141.753
 11
225.305
 21
141.753
  0
ENDBLK
  0
BLOCK
  8
LAYER_2
  2
AIGNBL0201004B
 70
64
 10
0
 20
0
 30
0
  3
AIGNBL0201004B
  0
LINE
  8
LAYER_2
 10
232.805
 20
144.753
 11
243.205
 21
144.753
  0
ENDBLK
  0
BLOCK
  8
LAYER_2
  2
AIGNBL0201004C
 70
64
 10
0
 20
0
 30
0
  3
AIGNBL0201004C
  0
LINE
  8
LAYER_2
 10
243.205
 20
156.753
 11
232.805
 21
156.753
  0
ENDBLK
  0
BLOCK
  8
LAYER_2
  2
AIGNBL0201004D
 70
64
 10
0
 20
0
 30
0
  3
AIGNBL0201004D
  0
LINE
  8
LAYER_2
 10
246.405
 20
144.753
 11
256.805
 21
144.753
  0
ENDBLK
  0
BLOCK
  8
LAYER_2
  2
AIGNBL0201004E
 70
64
 10
0
 20
0
 30
0
  3
AIGNBL0201004E
  0
LINE
  8
LAYER_2
 10
256.805
 20
156.753
 11
246.405
 21
156.753
  0
ENDBLK
  0
BLOCK
  8
LAYER_2
  2
AIGNBL0201004F
 70
64
 10
0
 20
0
 30
0
  3
AIGNBL0201004F
  0
LINE
  8
LAYER_2
 10
260.005
 20
144.753
 11
270.405
 21
144.753
  0
ENDBLK
  0
BLOCK
  8
LAYER_2
  2
AIGNBL02010050
 70
64
 10
0
 20
0
 30
0
  3
AIGNBL02010050
  0
LINE
  8
LAYER_2
 10
270.405
 20
156.753
 11
260.005
 21
156.753
  0
ENDBLK
  0
BLOCK
  8
LAYER_2
  2
AIGNBL02010051
 70
64
 10
0
 20
0
 30
0
  3
AIGNBL02010051
  0
LINE
  8
LAYER_2
 10
273.405
 20
137.953
 11
283.405
 21
137.953
  0
LINE
  8
LAYER_2
 10
283.405
 20
137.953
 11
283.405
 21
146.553
  0
LINE
  8
LAYER_2
 10
283.405
 20
146.553
 11
273.405
 21
146.553
  0
LINE
  8
LAYER_2
 10
273.405
 20
146.553
 11
273.405
 21
137.953
  0
ENDBLK
  0
BLOCK
  8
LAYER_2
  2
AIGNBL02010052
 70
64
 10
0
 20
0
 30
0
  3
AIGNBL02010052
  0
ARC
  8
LAYER_2
 10
278.405
 20
150.753
 40
2.3
 50
90.00004189
 51
179.9999581
  0
ARC
  8
LAYER_2
 10
278.405
 20
150.753
 40
2.3
 50
0.0008978163251
 51
89.99910217
  0
ARC
  8
LAYER_2
 10
278.405
 20
150.753
 40
2.3
 50
269.9999582
 51
4.185012174e-005
  0
ARC
  8
LAYER_2
 10
278.405
 20
150.753
 40
2.3
 50
179.9991021
 51
270.0008979
  0
ENDBLK
  0
BLOCK
  8
LAYER_2
  2
AIGNBL02010053
 70
64
 10
0
 20
0
 30
0
  3
AIGNBL02010053
  0
LINE
  8
LAYER_2
 10
278.905
 20
150.753
 11
277.905
 21
150.753
  0
ENDBLK
  0
BLOCK
  8
LAYER_2
  2
AIGNBL02010054
 70
64
 10
0
 20
0
 30
0
  3
AIGNBL02010054
  0
LINE
  8
LAYER_2
 10
278.405
 20
150.253
 11
278.405
 21
151.253
  0
ENDBLK
  0
BLOCK
  8
LAYER_2
  2
AIGNBL02010055
 70
64
 10
0
 20
0
 30
0
  3
AIGNBL02010055
  0
ARC
  8
LAYER_2
 10
278.405
 20
142.253
 40
2.6
 50
90.00003708
 51
179.9999629
  0
ARC
  8
LAYER_2
 10
278.405
 20
142.253
 40
2.6
 50
0.0007942483287
 51
89.99920574
  0
ARC
  8
LAYER_2
 10
278.405
 20
142.253
 40
2.6
 50
269.999963
 51
3.704474447e-005
  0
ARC
  8
LAYER_2
 10
278.405
 20
142.253
 40
2.6
 50
179.9992057
 51
270.0007943
  0
ENDBLK
  0
BLOCK
  8
LAYER_2
  2
AIGNBL02010056
 70
64
 10
0
 20
0
 30
0
  3
AIGNBL02010056
  0
LINE
  8
LAYER_2
 10
277.905
 20
141.753
 11
277.905
 21
140.753
  0
LINE
  8
LAYER_2
 10
277.905
 20
140.753
 11
278.905
 21
140.753
  0
LINE
  8
LAYER_2
 10
278.905
 20
140.753
 11
278.905
 21
141.753
  0
ENDBLK
  0
BLOCK
  8
LAYER_2
  2
AIGNBL02010057
 70
64
 10
0
 20
0
 30
0
  3
AIGNBL02010057
  0
LINE
  8
LAYER_2
 10
278.905
 20
142.753
 11
278.905
 21
143.753
  0
LINE
  8
LAYER_2
 10
278.905
 20
143.753
 11
277.905
 21
143.753
  0
LINE
  8
LAYER_2
 10
277.905
 20
143.753
 11
277.905
 21
142.753
  0
ENDBLK
  0
BLOCK
  8
LAYER_2
  2
AIGNBL02010058
 70
64
 10
0
 20
0
 30
0
  3
AIGNBL02010058
  0
LINE
  8
LAYER_2
 10
277.905
 20
141.753
 11
276.905
 21
141.753
  0
LINE
  8
LAYER_2
 10
276.905
 20
141.753
 11
276.905
 21
142.753
  0
LINE
  8
LAYER_2
 10
276.905
 20
142.753
 11
277.905
 21
142.753
  0
ENDBLK
  0
BLOCK
  8
LAYER_2
  2
AIGNBL02010059
 70
64
 10
0
 20
0
 30
0
  3
AIGNBL02010059
  0
LINE
  8
LAYER_2
 10
278.905
 20
142.753
 11
279.905
 21
142.753
  0
LINE
  8
LAYER_2
 10
279.905
 20
142.753
 11
279.905
 21
141.753
  0
LINE
  8
LAYER_2
 10
279.905
 20
141.753
 11
278.905
 21
141.753
  0
ENDBLK
  0
BLOCK
  8
LAYER_2
  2
AIGNBL0201005A
 70
64
 10
0
 20
0
 30
0
  3
AIGNBL0201005A
  0
ARC
  8
LAYER_2
 10
238.005
 20
150.753
 40
4
 50
90.00002401
 51
179.999976
  0
ARC
  8
LAYER_2
 10
238.005
 20
150.753
 40
4
 50
0.0005163251476
 51
89.99948366
  0
ARC
  8
LAYER_2
 10
238.005
 20
150.753
 40
4
 50
269.999976
 51
2.398991783e-005
  0
ARC
  8
LAYER_2
 10
238.005
 20
150.753
 40
4
 50
179.9994836
 51
270.0005163
  0
ENDBLK
  0
BLOCK
  8
LAYER_2
  2
AIGNBL0201005B
 70
64
 10
0
 20
0
 30
0
  3
AIGNBL0201005B
  0
ARC
  8
LAYER_2
 10
251.605
 20
150.753
 40
4
 50
90.00002404
 51
179.9999759
  0
ARC
  8
LAYER_2
 10
251.605
 20
150.753
 40
4
 50
0.0005163007939
 51
89.99948369
  0
ARC
  8
LAYER_2
 10
251.605
 20
150.753
 40
4
 50
269.999976
 51
2.401427259e-005
  0
ARC
  8
LAYER_2
 10
251.605
 20
150.753
 40
4
 50
179.9994837
 51
270.0005163
  0
ENDBLK
  0
BLOCK
  8
LAYER_2
  2
AIGNBL0201005C
 70
64
 10
0
 20
0
 30
0
  3
AIGNBL0201005C
  0
ARC
  8
LAYER_2
 10
265.205
 20
150.753
 40
4
 50
90.00002406
 51
179.9999759
  0
ARC
  8
LAYER_2
 10
265.205
 20
150.753
 40
4
 50
0.0005162764401
 51
89.99948371
  0
ARC
  8
LAYER_2
 10
265.205
 20
150.753
 40
4
 50
269.999976
 51
2.403862707e-005
  0
ARC
  8
LAYER_2
 10
265.205
 20
150.753
 40
4
 50
179.9994837
 51
270.0005163
  0
ENDBLK
  0
BLOCK
  8
LAYER_2
  2
AIGNBL0201005D
 70
64
 10
0
 20
0
 30
0
  3
AIGNBL0201005D
  0
LINE
  8
LAYER_2
 10
219.805
 20
137.953
 11
233.805
 21
137.953
  0
ENDBLK
  0
BLOCK
  8
LAYER_2
  2
AIGNBL0201005E
 70
64
 10
0
 20
0
 30
0
  3
AIGNBL0201005E
  0
ARC
  8
LAYER_2
 10
249.3374
 20
137.9425
 40
1.0325
 50
145.0084458
 51
179.4152142
  0
ARC
  8
LAYER_2
 10
249.9668
 20
137.5258
 40
1.7871
 50
121.4824019
 51
145.635987
  0
ARC
  8
LAYER_2
 10
250.9197
 20
136.1311
 40
3.4752
 50
105.3958743
 51
122.8712819
  0
ARC
  8
LAYER_2
 10
251.5151
 20
134.2992
 40
5.4001
 50
93.06800925
 51
106.3263473
  0
ARC
  8
LAYER_2
 10
251.6048
 20
133.4123
 40
6.2907
 50
89.99819816
 51
93.45167041
  0
ARC
  8
LAYER_2
 10
251.6195
 20
133.8065
 40
5.8965
 50
76.10340803
 51
90.14090195
  0
ARC
  8
LAYER_2
 10
252.0432
 20
135.552
 40
4.1003
 50
60.30956453
 51
75.99293626
  0
ARC
  8
LAYER_2
 10
252.9799
 20
137.2373
 40
2.1725
 50
38.6686841
 51
59.75504728
  0
ARC
  8
LAYER_2
 10
253.7605
 20
137.899
 40
1.1499
 50
8.3190873
 51
37.2282056
  0
ARC
  8
LAYER_2
 10
253.9492
 20
137.9524
 40
0.9558
 50
0.03308516267
 51
6.786082326
  0
ENDBLK
  0
BLOCK
  8
LAYER_2
  2
AIGNBL0201005F
 70
64
 10
0
 20
0
 30
0
  3
AIGNBL0201005F
  0
LINE
  8
LAYER_2
 10
270.405
 20
137.953
 11
260.005
 21
137.953
  0
ENDBLK
  0
BLOCK
  8
LAYER_2
  2
AIGNBL02010060
 70
64
 10
0
 20
0
 30
0
  3
AIGNBL02010060
  0
LINE
  8
LAYER_2
 10
270.405
 20
163.953
 11
260.005
 21
163.953
  0
ENDBLK
  0
BLOCK
  8
LAYER_2
  2
AIGNBL02010061
 70
64
 10
0
 20
0
 30
0
  3
AIGNBL02010061
  0
LINE
  8
LAYER_2
 10
251.005
 20
150.153
 11
249.205
 21
150.153
  0
LINE
  8
LAYER_2
 10
249.205
 20
150.153
 11
249.205
 21
151.353
  0
LINE
  8
LAYER_2
 10
249.205
 20
151.353
 11
251.005
 21
151.353
  0
ENDBLK
  0
BLOCK
  8
LAYER_2
  2
AIGNBL02010062
 70
64
 10
0
 20
0
 30
0
  3
AIGNBL02010062
  0
LINE
  8
LAYER_2
 10
252.205
 20
151.353
 11
254.005
 21
151.353
  0
LINE
  8
LAYER_2
 10
254.005
 20
151.353
 11
254.005
 21
150.153
  0
LINE
  8
LAYER_2
 10
254.005
 20
150.153
 11
252.205
 21
150.153
  0
ENDBLK
  0
BLOCK
  8
LAYER_2
  2
AIGNBL02010063
 70
64
 10
0
 20
0
 30
0
  3
AIGNBL02010063
  0
LINE
  8
LAYER_2
 10
252.205
 20
151.353
 11
252.205
 21
153.153
  0
LINE
  8
LAYER_2
 10
252.205
 20
153.153
 11
251.005
 21
153.153
  0
LINE
  8
LAYER_2
 10
251.005
 20
153.153
 11
251.005
 21
151.353
  0
ENDBLK
  0
BLOCK
  8
LAYER_2
  2
AIGNBL02010064
 70
64
 10
0
 20
0
 30
0
  3
AIGNBL02010064
  0
LINE
  8
LAYER_2
 10
251.005
 20
150.153
 11
251.005
 21
148.353
  0
LINE
  8
LAYER_2
 10
251.005
 20
148.353
 11
252.205
 21
148.353
  0
LINE
  8
LAYER_2
 10
252.205
 20
148.353
 11
252.205
 21
150.153
  0
ENDBLK
  0
BLOCK
  8
LAYER_2
  2
AIGNBL02010065
 70
64
 10
0
 20
0
 30
0
  3
AIGNBL02010065
  0
LINE
  8
LAYER_2
 10
237.405
 20
150.153
 11
235.605
 21
150.153
  0
LINE
  8
LAYER_2
 10
235.605
 20
150.153
 11
235.605
 21
151.353
  0
LINE
  8
LAYER_2
 10
235.605
 20
151.353
 11
237.405
 21
151.353
  0
ENDBLK
  0
BLOCK
  8
LAYER_2
  2
AIGNBL02010066
 70
64
 10
0
 20
0
 30
0
  3
AIGNBL02010066
  0
LINE
  8
LAYER_2
 10
238.605
 20
151.353
 11
240.405
 21
151.353
  0
LINE
  8
LAYER_2
 10
240.405
 20
151.353
 11
240.405
 21
150.153
  0
LINE
  8
LAYER_2
 10
240.405
 20
150.153
 11
238.605
 21
150.153
  0
ENDBLK
  0
BLOCK
  8
LAYER_2
  2
AIGNBL02010067
 70
64
 10
0
 20
0
 30
0
  3
AIGNBL02010067
  0
LINE
  8
LAYER_2
 10
238.605
 20
151.353
 11
238.605
 21
153.153
  0
LINE
  8
LAYER_2
 10
238.605
 20
153.153
 11
237.405
 21
153.153
  0
LINE
  8
LAYER_2
 10
237.405
 20
153.153
 11
237.405
 21
151.353
  0
ENDBLK
  0
BLOCK
  8
LAYER_2
  2
AIGNBL02010068
 70
64
 10
0
 20
0
 30
0
  3
AIGNBL02010068
  0
LINE
  8
LAYER_2
 10
237.405
 20
150.153
 11
237.405
 21
148.353
  0
LINE
  8
LAYER_2
 10
237.405
 20
148.353
 11
238.605
 21
148.353
  0
LINE
  8
LAYER_2
 10
238.605
 20
148.353
 11
238.605
 21
150.153
  0
ENDBLK
  0
BLOCK
  8
LAYER_2
  2
AIGNBL02010069
 70
64
 10
0
 20
0
 30
0
  3
AIGNBL02010069
  0
LINE
  8
LAYER_2
 10
324.8556
 20
163.953
 11
393.3556
 21
163.953
  0
LINE
  8
LAYER_2
 10
393.3556
 20
163.953
 11
393.3556
 21
43.953
  0
LINE
  8
LAYER_2
 10
393.3556
 20
43.953
 11
324.8556
 21
43.953
  0
ARC
  8
LAYER_2
 10
324.8556
 20
45.453
 40
1.5
 50
179.9995088
 51
270.0004912
  0
LINE
  8
LAYER_2
 10
323.3556
 20
45.453
 11
323.3556
 21
162.453
  0
ARC
  8
LAYER_2
 10
324.8556
 20
162.453
 40
1.5
 50
90.00095009
 51
179.9990499
  0
ENDBLK
  0
BLOCK
  8
LAYER_2
  2
AIGNBL0201006A
 70
64
 10
0
 20
0
 30
0
  3
AIGNBL0201006A
  0
ARC
  8
LAYER_2
 10
393.3556
 20
161.953
 40
2
 50
0.0003677632102
 51
89.99963223
  0
LINE
  8
LAYER_2
 10
395.3556
 20
161.953
 11
395.3556
 21
137.953
  0
LINE
  8
LAYER_2
 10
395.3556
 20
137.953
 11
393.3556
 21
137.953
  0
LINE
  8
LAYER_2
 10
393.3556
 20
137.953
 11
393.3556
 21
163.953
  0
ENDBLK
  0
BLOCK
  8
LAYER_2
  2
AIGNBL0201006B
 70
64
 10
0
 20
0
 30
0
  3
AIGNBL0201006B
  0
ARC
  8
LAYER_2
 10
393.3556
 20
45.953
 40
2
 50
269.9992868
 51
0.0007132337407
  0
LINE
  8
LAYER_2
 10
395.3556
 20
45.953
 11
395.3556
 21
69.953
  0
LINE
  8
LAYER_2
 10
395.3556
 20
69.953
 11
393.3556
 21
69.953
  0
LINE
  8
LAYER_2
 10
393.3556
 20
69.953
 11
393.3556
 21
43.953
  0
ENDBLK
  0
BLOCK
  8
LAYER_2
  2
AIGNBL0201006C
 70
64
 10
0
 20
0
 30
0
  3
AIGNBL0201006C
  0
LINE
  8
LAYER_2
 10
283.405
 20
11.0377
 11
285.605
 21
11.0377
  0
LINE
  8
LAYER_2
 10
285.605
 20
11.0377
 11
285.605
 21
-58.9623
  0
LINE
  8
LAYER_2
 10
285.605
 20
-58.9623
 11
283.405
 21
-58.9623
  0
ENDBLK
  0
BLOCK
  8
LAYER_2
  2
AIGNBL0201006D
 70
64
 10
0
 20
0
 30
0
  3
AIGNBL0201006D
  0
LINE
  8
LAYER_2
 10
273.405
 20
-58.9623
 11
229.805
 21
-58.9623
  0
ENDBLK
  0
BLOCK
  8
LAYER_2
  2
AIGNBL0201006E
 70
64
 10
0
 20
0
 30
0
  3
AIGNBL0201006E
  0
LINE
  8
LAYER_2
 10
219.805
 20
-58.9623
 11
217.605
 21
-58.9623
  0
LINE
  8
LAYER_2
 10
217.605
 20
-58.9623
 11
217.605
 21
11.0377
  0
LINE
  8
LAYER_2
 10
217.605
 20
11.0377
 11
219.805
 21
11.0377
  0
ENDBLK
  0
BLOCK
  8
LAYER_2
  2
AIGNBL0201006F
 70
64
 10
0
 20
0
 30
0
  3
AIGNBL0201006F
  0
LINE
  8
LAYER_2
 10
217.605
 20
11.0377
 11
219.805
 21
11.0377
  0
LINE
  8
LAYER_2
 10
219.805
 20
11.0377
 11
219.805
 21
-58.9623
  0
LINE
  8
LAYER_2
 10
219.805
 20
-58.9623
 11
217.605
 21
-58.9623
  0
LINE
  8
LAYER_2
 10
217.605
 20
-58.9623
 11
217.605
 21
11.0377
  0
ENDBLK
  0
BLOCK
  8
LAYER_2
  2
AIGNBL02010070
 70
64
 10
0
 20
0
 30
0
  3
AIGNBL02010070
  0
LINE
  8
LAYER_2
 10
283.405
 20
11.0377
 11
285.605
 21
11.0377
  0
LINE
  8
LAYER_2
 10
285.605
 20
11.0377
 11
285.605
 21
-58.9623
  0
LINE
  8
LAYER_2
 10
285.605
 20
-58.9623
 11
283.405
 21
-58.9623
  0
LINE
  8
LAYER_2
 10
283.405
 20
-58.9623
 11
283.405
 21
11.0377
  0
ENDBLK
  0
BLOCK
  8
LAYER_2
  2
AIGNBL02010071
 70
64
 10
0
 20
0
 30
0
  3
AIGNBL02010071
  0
LINE
  8
LAYER_2
 10
229.805
 20
-58.9623
 11
229.805
 21
-60.9623
  0
LINE
  8
LAYER_2
 10
229.805
 20
-60.9623
 11
219.805
 21
-60.9623
  0
LINE
  8
LAYER_2
 10
219.805
 20
-60.9623
 11
219.805
 21
-58.9623
  0
ENDBLK
  0
BLOCK
  8
LAYER_2
  2
AIGNBL02010072
 70
64
 10
0
 20
0
 30
0
  3
AIGNBL02010072
  0
LINE
  8
LAYER_2
 10
283.405
 20
-58.9623
 11
283.405
 21
-60.9623
  0
LINE
  8
LAYER_2
 10
283.405
 20
-60.9623
 11
273.405
 21
-60.9623
  0
LINE
  8
LAYER_2
 10
273.405
 20
-60.9623
 11
273.405
 21
-58.9623
  0
ENDBLK
  0
BLOCK
  8
LAYER_2
  2
AIGNBL02010073
 70
64
 10
0
 20
0
 30
0
  3
AIGNBL02010073
  0
LINE
  8
LAYER_2
 10
229.805
 20
-58.9623
 11
273.405
 21
-58.9623
  0
ENDBLK
  0
BLOCK
  8
LAYER_2
  2
AIGNBL02010074
 70
64
 10
0
 20
0
 30
0
  3
AIGNBL02010074
  0
LINE
  8
LAYER_2
 10
283.405
 20
-58.9623
 11
283.405
 21
-36.6623
  0
LINE
  8
LAYER_2
 10
283.405
 20
-36.6623
 11
219.805
 21
-36.6623
  0
LINE
  8
LAYER_2
 10
219.805
 20
-36.6623
 11
219.805
 21
-58.9623
  0
ENDBLK
  0
BLOCK
  8
LAYER_2
  2
AIGNBL02010075
 70
64
 10
0
 20
0
 30
0
  3
AIGNBL02010075
  0
LINE
  8
LAYER_2
 10
260.005
 20
-18.6623
 11
256.805
 21
-18.6623
  0
ENDBLK
  0
BLOCK
  8
LAYER_2
  2
AIGNBL02010076
 70
64
 10
0
 20
0
 30
0
  3
AIGNBL02010076
  0
LINE
  8
LAYER_2
 10
246.405
 20
-18.6623
 11
243.205
 21
-18.6623
  0
ENDBLK
  0
BLOCK
  8
LAYER_2
  2
AIGNBL02010077
 70
64
 10
0
 20
0
 30
0
  3
AIGNBL02010077
  0
LINE
  8
LAYER_2
 10
232.805
 20
-18.6623
 11
219.805
 21
-18.6623
  0
LINE
  8
LAYER_2
 10
219.805
 20
-18.6623
 11
219.805
 21
-36.6623
  0
LINE
  8
LAYER_2
 10
219.805
 20
-36.6623
 11
283.405
 21
-36.6623
  0
LINE
  8
LAYER_2
 10
283.405
 20
-36.6623
 11
283.405
 21
-18.6623
  0
LINE
  8
LAYER_2
 10
283.405
 20
-18.6623
 11
270.405
 21
-18.6623
  0
ENDBLK
  0
BLOCK
  8
LAYER_2
  2
AIGNBL02010078
 70
64
 10
0
 20
0
 30
0
  3
AIGNBL02010078
  0
LINE
  8
LAYER_2
 10
243.205
 20
-18.6623
 11
243.205
 21
-29.6623
  0
LINE
  8
LAYER_2
 10
243.205
 20
-29.6623
 11
232.805
 21
-29.6623
  0
LINE
  8
LAYER_2
 10
232.805
 20
-29.6623
 11
232.805
 21
-18.6623
  0
ENDBLK
  0
BLOCK
  8
LAYER_2
  2
AIGNBL02010079
 70
64
 10
0
 20
0
 30
0
  3
AIGNBL02010079
  0
LINE
  8
LAYER_2
 10
256.805
 20
-18.6623
 11
256.805
 21
-29.6623
  0
LINE
  8
LAYER_2
 10
256.805
 20
-29.6623
 11
246.405
 21
-29.6623
  0
LINE
  8
LAYER_2
 10
246.405
 20
-29.6623
 11
246.405
 21
-18.6623
  0
ENDBLK
  0
BLOCK
  8
LAYER_2
  2
AIGNBL0201007A
 70
64
 10
0
 20
0
 30
0
  3
AIGNBL0201007A
  0
LINE
  8
LAYER_2
 10
270.405
 20
-18.6623
 11
270.405
 21
-29.6623
  0
LINE
  8
LAYER_2
 10
270.405
 20
-29.6623
 11
260.005
 21
-29.6623
  0
LINE
  8
LAYER_2
 10
260.005
 20
-29.6623
 11
260.005
 21
-18.6623
  0
ENDBLK
  0
BLOCK
  8
LAYER_2
  2
AIGNBL0201007B
 70
64
 10
0
 20
0
 30
0
  3
AIGNBL0201007B
  0
LINE
  8
LAYER_2
 10
232.805
 20
-26.2623
 11
243.205
 21
-26.2623
  0
ENDBLK
  0
BLOCK
  8
LAYER_2
  2
AIGNBL0201007C
 70
64
 10
0
 20
0
 30
0
  3
AIGNBL0201007C
  0
LINE
  8
LAYER_2
 10
246.405
 20
-26.2623
 11
256.805
 21
-26.2623
  0
ENDBLK
  0
BLOCK
  8
LAYER_2
  2
AIGNBL0201007D
 70
64
 10
0
 20
0
 30
0
  3
AIGNBL0201007D
  0
LINE
  8
LAYER_2
 10
260.005
 20
-26.2623
 11
270.405
 21
-26.2623
  0
ENDBLK
  0
BLOCK
  8
LAYER_2
  2
AIGNBL0201007E
 70
64
 10
0
 20
0
 30
0
  3
AIGNBL0201007E
  0
ARC
  8
LAYER_2
 10
233.805
 20
-9.7623
 40
3.3
 50
89.99973039
 51
180.0002696
  0
ARC
  8
LAYER_2
 10
233.805
 20
-9.7623
 40
3.3
 50
0.0003271588165
 51
89.99967283
  0
ARC
  8
LAYER_2
 10
233.805
 20
-9.7623
 40
3.3
 50
270.0002696
 51
359.9997304
  0
ARC
  8
LAYER_2
 10
233.805
 20
-9.7623
 40
3.3
 50
179.9996728
 51
270.0003272
  0
ENDBLK
  0
BLOCK
  8
LAYER_2
  2
AIGNBL0201007F
 70
64
 10
0
 20
0
 30
0
  3
AIGNBL0201007F
  0
ARC
  8
LAYER_2
 10
269.405
 20
-9.7623
 40
3.3
 50
89.99973047
 51
180.0002695
  0
ARC
  8
LAYER_2
 10
269.405
 20
-9.7623
 40
3.3
 50
0.0003270815545
 51
89.99967291
  0
ARC
  8
LAYER_2
 10
269.405
 20
-9.7623
 40
3.3
 50
270.0002696
 51
359.9997305
  0
ARC
  8
LAYER_2
 10
269.405
 20
-9.7623
 40
3.3
 50
179.9996729
 51
270.0003271
  0
ENDBLK
  0
BLOCK
  8
LAYER_2
  2
AIGNBL02010080
 70
64
 10
0
 20
0
 30
0
  3
AIGNBL02010080
  0
LINE
  8
LAYER_2
 10
233.305
 20
-9.2623
 11
233.305
 21
-8.2623
  0
LINE
  8
LAYER_2
 10
233.305
 20
-8.2623
 11
234.305
 21
-8.2623
  0
LINE
  8
LAYER_2
 10
234.305
 20
-8.2623
 11
234.305
 21
-9.2623
  0
ENDBLK
  0
BLOCK
  8
LAYER_2
  2
AIGNBL02010081
 70
64
 10
0
 20
0
 30
0
  3
AIGNBL02010081
  0
LINE
  8
LAYER_2
 10
234.305
 20
-10.2623
 11
234.305
 21
-11.2623
  0
LINE
  8
LAYER_2
 10
234.305
 20
-11.2623
 11
233.305
 21
-11.2623
  0
LINE
  8
LAYER_2
 10
233.305
 20
-11.2623
 11
233.305
 21
-10.2623
  0
ENDBLK
  0
BLOCK
  8
LAYER_2
  2
AIGNBL02010082
 70
64
 10
0
 20
0
 30
0
  3
AIGNBL02010082
  0
LINE
  8
LAYER_2
 10
233.305
 20
-9.2623
 11
232.305
 21
-9.2623
  0
LINE
  8
LAYER_2
 10
232.305
 20
-9.2623
 11
232.305
 21
-10.2623
  0
LINE
  8
LAYER_2
 10
232.305
 20
-10.2623
 11
233.305
 21
-10.2623
  0
ENDBLK
  0
BLOCK
  8
LAYER_2
  2
AIGNBL02010083
 70
64
 10
0
 20
0
 30
0
  3
AIGNBL02010083
  0
LINE
  8
LAYER_2
 10
234.305
 20
-10.2623
 11
235.305
 21
-10.2623
  0
LINE
  8
LAYER_2
 10
235.305
 20
-10.2623
 11
235.305
 21
-9.2623
  0
LINE
  8
LAYER_2
 10
235.305
 20
-9.2623
 11
234.305
 21
-9.2623
  0
ENDBLK
  0
BLOCK
  8
LAYER_2
  2
AIGNBL02010084
 70
64
 10
0
 20
0
 30
0
  3
AIGNBL02010084
  0
LINE
  8
LAYER_2
 10
268.905
 20
-9.2623
 11
268.905
 21
-8.2623
  0
LINE
  8
LAYER_2
 10
268.905
 20
-8.2623
 11
269.905
 21
-8.2623
  0
LINE
  8
LAYER_2
 10
269.905
 20
-8.2623
 11
269.905
 21
-9.2623
  0
ENDBLK
  0
BLOCK
  8
LAYER_2
  2
AIGNBL02010085
 70
64
 10
0
 20
0
 30
0
  3
AIGNBL02010085
  0
LINE
  8
LAYER_2
 10
269.905
 20
-10.2623
 11
269.905
 21
-11.2623
  0
LINE
  8
LAYER_2
 10
269.905
 20
-11.2623
 11
268.905
 21
-11.2623
  0
LINE
  8
LAYER_2
 10
268.905
 20
-11.2623
 11
268.905
 21
-10.2623
  0
ENDBLK
  0
BLOCK
  8
LAYER_2
  2
AIGNBL02010086
 70
64
 10
0
 20
0
 30
0
  3
AIGNBL02010086
  0
LINE
  8
LAYER_2
 10
268.905
 20
-9.2623
 11
267.905
 21
-9.2623
  0
LINE
  8
LAYER_2
 10
267.905
 20
-9.2623
 11
267.905
 21
-10.2623
  0
LINE
  8
LAYER_2
 10
267.905
 20
-10.2623
 11
268.905
 21
-10.2623
  0
ENDBLK
  0
BLOCK
  8
LAYER_2
  2
AIGNBL02010087
 70
64
 10
0
 20
0
 30
0
  3
AIGNBL02010087
  0
LINE
  8
LAYER_2
 10
269.905
 20
-10.2623
 11
270.905
 21
-10.2623
  0
LINE
  8
LAYER_2
 10
270.905
 20
-10.2623
 11
270.905
 21
-9.2623
  0
LINE
  8
LAYER_2
 10
270.905
 20
-9.2623
 11
269.905
 21
-9.2623
  0
ENDBLK
  0
BLOCK
  8
LAYER_2
  2
AIGNBL02010088
 70
64
 10
0
 20
0
 30
0
  3
AIGNBL02010088
  0
LINE
  8
LAYER_2
 10
283.405
 20
7.7377
 11
219.805
 21
7.7377
  0
ENDBLK
  0
BLOCK
  8
LAYER_2
  2
AIGNBL02010089
 70
64
 10
0
 20
0
 30
0
  3
AIGNBL02010089
  0
LINE
  8
LAYER_2
 10
283.405
 20
-18.6623
 11
273.405
 21
-18.6623
  0
LINE
  8
LAYER_2
 10
273.405
 20
-18.6623
 11
273.405
 21
-17.6623
  0
LINE
  8
LAYER_2
 10
273.405
 20
-17.6623
 11
283.405
 21
-17.6623
  0
LINE
  8
LAYER_2
 10
283.405
 20
-17.6623
 11
283.405
 21
-18.6623
  0
ENDBLK
  0
BLOCK
  8
LAYER_2
  2
AIGNBL0201008A
 70
64
 10
0
 20
0
 30
0
  3
AIGNBL0201008A
  0
LINE
  8
LAYER_2
 10
274.405
 20
-17.6623
 11
282.405
 21
-17.6623
  0
LINE
  8
LAYER_2
 10
282.405
 20
-17.6623
 11
282.405
 21
-16.6623
  0
LINE
  8
LAYER_2
 10
282.405
 20
-16.6623
 11
274.405
 21
-16.6623
  0
LINE
  8
LAYER_2
 10
274.405
 20
-16.6623
 11
274.405
 21
-17.6623
  0
ENDBLK
  0
BLOCK
  8
LAYER_2
  2
AIGNBL0201008B
 70
64
 10
0
 20
0
 30
0
  3
AIGNBL0201008B
  0
LINE
  8
LAYER_2
 10
275.805
 20
-16.6623
 11
281.005
 21
-16.6623
  0
LINE
  8
LAYER_2
 10
281.005
 20
-16.6623
 11
281.005
 21
-15.6623
  0
LINE
  8
LAYER_2
 10
281.005
 20
-15.6623
 11
275.805
 21
-15.6623
  0
LINE
  8
LAYER_2
 10
275.805
 20
-15.6623
 11
275.805
 21
-16.6623
  0
ENDBLK
  0
BLOCK
  8
LAYER_2
  2
AIGNBL0201008C
 70
64
 10
0
 20
0
 30
0
  3
AIGNBL0201008C
  0
LINE
  8
LAYER_2
 10
276.305
 20
-15.6623
 11
280.505
 21
-15.6623
  0
ARC
  8
LAYER_2
 10
280.505
 20
-15.1623
 40
0.5
 50
270.0017787
 51
359.9982213
  0
LINE
  8
LAYER_2
 10
281.005
 20
-15.1623
 11
281.005
 21
-14.6623
  0
ARC
  8
LAYER_2
 10
280.005
 20
-14.6623
 40
1
 50
0.001079296802
 51
89.99892069
  0
LINE
  8
LAYER_2
 10
280.005
 20
-13.6623
 11
276.805
 21
-13.6623
  0
ARC
  8
LAYER_2
 10
276.805
 20
-14.6623
 40
1
 50
89.99911063
 51
180.0008894
  0
LINE
  8
LAYER_2
 10
275.805
 20
-14.6623
 11
275.805
 21
-15.1623
  0
ARC
  8
LAYER_2
 10
276.305
 20
-15.1623
 40
0.5
 50
179.9978413
 51
270.0021587
  0
ENDBLK
  0
BLOCK
  8
LAYER_2
  2
AIGNBL0201008D
 70
64
 10
0
 20
0
 30
0
  3
AIGNBL0201008D
  0
ARC
  8
LAYER_2
 10
278.405
 20
65.653
 40
4
 50
90.00002424
 51
179.9999757
  0
ARC
  8
LAYER_2
 10
278.405
 20
65.653
 40
4
 50
0.0005164051902
 51
89.99948358
  0
ARC
  8
LAYER_2
 10
278.405
 20
65.653
 40
4
 50
269.9999758
 51
2.42146349e-005
  0
ARC
  8
LAYER_2
 10
278.405
 20
65.653
 40
4
 50
179.9994836
 51
270.0005164
  0
ENDBLK
  0
BLOCK
  8
LAYER_2
  2
AIGNBL0201008E
 70
64
 10
0
 20
0
 30
0
  3
AIGNBL0201008E
  0
ARC
  8
LAYER_2
 10
224.805
 20
65.653
 40
4
 50
90.00002414
 51
179.9999758
  0
ARC
  8
LAYER_2
 10
224.805
 20
65.653
 40
4
 50
0.0005165011541
 51
89.99948349
  0
ARC
  8
LAYER_2
 10
224.805
 20
65.653
 40
4
 50
269.9999759
 51
2.411866726e-005
  0
ARC
  8
LAYER_2
 10
224.805
 20
65.653
 40
4
 50
179.9994835
 51
270.0005165
  0
ENDBLK
  0
BLOCK
  8
LAYER_2
  2
AIGNBL0201008F
 70
64
 10
0
 20
0
 30
0
  3
AIGNBL0201008F
  0
ARC
  8
LAYER_2
 10
224.805
 20
142.253
 40
4
 50
90.000024
 51
179.999976
  0
ARC
  8
LAYER_2
 10
224.805
 20
142.253
 40
4
 50
0.0005163639897
 51
89.99948362
  0
ARC
  8
LAYER_2
 10
224.805
 20
142.253
 40
4
 50
269.999976
 51
2.398150285e-005
  0
ARC
  8
LAYER_2
 10
224.805
 20
142.253
 40
4
 50
179.9994836
 51
270.0005164
  0
ENDBLK
  0
BLOCK
  8
LAYER_2
  2
AIGNBL02010090
 70
64
 10
0
 20
0
 30
0
  3
AIGNBL02010090
  0
ARC
  8
LAYER_2
 10
278.405
 20
142.253
 40
4
 50
90.0000241
 51
179.9999759
  0
ARC
  8
LAYER_2
 10
278.405
 20
142.253
 40
4
 50
0.0005162680259
 51
89.99948372
  0
ARC
  8
LAYER_2
 10
278.405
 20
142.253
 40
4
 50
269.9999759
 51
2.407747049e-005
  0
ARC
  8
LAYER_2
 10
278.405
 20
142.253
 40
4
 50
179.9994837
 51
270.0005163
  0
ENDBLK
  0
BLOCK
  8
LAYER_2
  2
AIGNBL02010091
 70
64
 10
0
 20
0
 30
0
  3
AIGNBL02010091
  0
LINE
  8
LAYER_2
 10
229.805
 20
-18.6623
 11
219.805
 21
-18.6623
  0
LINE
  8
LAYER_2
 10
219.805
 20
-18.6623
 11
219.805
 21
-17.6623
  0
LINE
  8
LAYER_2
 10
219.805
 20
-17.6623
 11
229.805
 21
-17.6623
  0
LINE
  8
LAYER_2
 10
229.805
 20
-17.6623
 11
229.805
 21
-18.6623
  0
ENDBLK
  0
BLOCK
  8
LAYER_2
  2
AIGNBL02010092
 70
64
 10
0
 20
0
 30
0
  3
AIGNBL02010092
  0
LINE
  8
LAYER_2
 10
220.805
 20
-17.6623
 11
228.805
 21
-17.6623
  0
LINE
  8
LAYER_2
 10
228.805
 20
-17.6623
 11
228.805
 21
-16.6623
  0
LINE
  8
LAYER_2
 10
228.805
 20
-16.6623
 11
220.805
 21
-16.6623
  0
LINE
  8
LAYER_2
 10
220.805
 20
-16.6623
 11
220.805
 21
-17.6623
  0
ENDBLK
  0
BLOCK
  8
LAYER_2
  2
AIGNBL02010093
 70
64
 10
0
 20
0
 30
0
  3
AIGNBL02010093
  0
LINE
  8
LAYER_2
 10
222.205
 20
-16.6623
 11
227.405
 21
-16.6623
  0
LINE
  8
LAYER_2
 10
227.405
 20
-16.6623
 11
227.405
 21
-15.6623
  0
LINE
  8
LAYER_2
 10
227.405
 20
-15.6623
 11
222.205
 21
-15.6623
  0
LINE
  8
LAYER_2
 10
222.205
 20
-15.6623
 11
222.205
 21
-16.6623
  0
ENDBLK
  0
BLOCK
  8
LAYER_2
  2
AIGNBL02010094
 70
64
 10
0
 20
0
 30
0
  3
AIGNBL02010094
  0
LINE
  8
LAYER_2
 10
222.705
 20
-15.6623
 11
226.905
 21
-15.6623
  0
ARC
  8
LAYER_2
 10
226.905
 20
-15.1623
 40
0.5
 50
270.0017795
 51
359.9982205
  0
LINE
  8
LAYER_2
 10
227.405
 20
-15.1623
 11
227.405
 21
-14.6623
  0
ARC
  8
LAYER_2
 10
226.405
 20
-14.6623
 40
1
 50
0.001079680661
 51
89.99892031
  0
LINE
  8
LAYER_2
 10
226.405
 20
-13.6623
 11
223.205
 21
-13.6623
  0
ARC
  8
LAYER_2
 10
223.205
 20
-14.6623
 40
1
 50
89.99911025
 51
180.0008898
  0
LINE
  8
LAYER_2
 10
222.205
 20
-14.6623
 11
222.205
 21
-15.1623
  0
ARC
  8
LAYER_2
 10
222.705
 20
-15.1623
 40
0.5
 50
179.9978405
 51
270.0021595
  0
ENDBLK
  0
BLOCK
  8
LAYER_2
  2
AIGNBL02010095
 70
64
 10
0
 20
0
 30
0
  3
AIGNBL02010095
  0
LINE
  8
LAYER_2
 10
261.205
 20
-26.2623
 11
269.205
 21
-26.2623
  0
LINE
  8
LAYER_2
 10
269.205
 20
-26.2623
 11
269.205
 21
-25.2623
  0
LINE
  8
LAYER_2
 10
269.205
 20
-25.2623
 11
261.205
 21
-25.2623
  0
LINE
  8
LAYER_2
 10
261.205
 20
-25.2623
 11
261.205
 21
-26.2623
  0
ENDBLK
  0
BLOCK
  8
LAYER_2
  2
AIGNBL02010096
 70
64
 10
0
 20
0
 30
0
  3
AIGNBL02010096
  0
LINE
  8
LAYER_2
 10
262.205
 20
-25.2623
 11
268.205
 21
-25.2623
  0
LINE
  8
LAYER_2
 10
268.205
 20
-25.2623
 11
268.205
 21
-24.2623
  0
LINE
  8
LAYER_2
 10
268.205
 20
-24.2623
 11
262.205
 21
-24.2623
  0
LINE
  8
LAYER_2
 10
262.205
 20
-24.2623
 11
262.205
 21
-25.2623
  0
ENDBLK
  0
BLOCK
  8
LAYER_2
  2
AIGNBL02010097
 70
64
 10
0
 20
0
 30
0
  3
AIGNBL02010097
  0
LINE
  8
LAYER_2
 10
261.705
 20
-24.2623
 11
268.705
 21
-24.2623
  0
ARC
  8
LAYER_2
 10
268.705
 20
-23.7623
 40
0.5
 50
270.0017788
 51
359.9982212
  0
LINE
  8
LAYER_2
 10
269.205
 20
-23.7623
 11
269.205
 21
-23.2623
  0
ARC
  8
LAYER_2
 10
267.205
 20
-23.2623
 40
2
 50
0.0005397325584
 51
89.99946026
  0
LINE
  8
LAYER_2
 10
267.205
 20
-21.2623
 11
263.205
 21
-21.2623
  0
ARC
  8
LAYER_2
 10
263.205
 20
-23.2623
 40
2
 50
89.9995553
 51
180.0004447
  0
LINE
  8
LAYER_2
 10
261.205
 20
-23.2623
 11
261.205
 21
-23.7623
  0
ARC
  8
LAYER_2
 10
261.705
 20
-23.7623
 40
0.5
 50
179.997841
 51
270.002159
  0
ENDBLK
  0
BLOCK
  8
LAYER_2
  2
AIGNBL02010098
 70
64
 10
0
 20
0
 30
0
  3
AIGNBL02010098
  0
LINE
  8
LAYER_2
 10
247.605
 20
-26.2623
 11
255.605
 21
-26.2623
  0
LINE
  8
LAYER_2
 10
255.605
 20
-26.2623
 11
255.605
 21
-25.2623
  0
LINE
  8
LAYER_2
 10
255.605
 20
-25.2623
 11
247.605
 21
-25.2623
  0
LINE
  8
LAYER_2
 10
247.605
 20
-25.2623
 11
247.605
 21
-26.2623
  0
ENDBLK
  0
BLOCK
  8
LAYER_2
  2
AIGNBL02010099
 70
64
 10
0
 20
0
 30
0
  3
AIGNBL02010099
  0
LINE
  8
LAYER_2
 10
234.005
 20
-26.2623
 11
242.005
 21
-26.2623
  0
LINE
  8
LAYER_2
 10
242.005
 20
-26.2623
 11
242.005
 21
-25.2623
  0
LINE
  8
LAYER_2
 10
242.005
 20
-25.2623
 11
234.005
 21
-25.2623
  0
LINE
  8
LAYER_2
 10
234.005
 20
-25.2623
 11
234.005
 21
-26.2623
  0
ENDBLK
  0
BLOCK
  8
LAYER_2
  2
AIGNBL0201009A
 70
64
 10
0
 20
0
 30
0
  3
AIGNBL0201009A
  0
ARC
  8
LAYER_2
 10
245.805
 20
103.953
 40
2
 50
90.00004823
 51
179.9999517
  0
ARC
  8
LAYER_2
 10
245.805
 20
103.953
 40
2
 50
0.001032768886
 51
89.99896722
  0
ARC
  8
LAYER_2
 10
245.805
 20
103.953
 40
2
 50
269.9999518
 51
4.817785596e-005
  0
ARC
  8
LAYER_2
 10
245.805
 20
103.953
 40
2
 50
179.9989672
 51
270.0010328
  0
ENDBLK
  0
BLOCK
  8
LAYER_2
  2
AIGNBL0201009B
 70
64
 10
0
 20
0
 30
0
  3
AIGNBL0201009B
  0
ARC
  8
LAYER_2
 10
245.805
 20
7.7377
 40
2
 50
0.0005396981191
 51
89.99946029
  0
ARC
  8
LAYER_2
 10
245.805
 20
7.7377
 40
2
 50
89.99955512
 51
180.0004449
  0
ENDBLK
  0
BLOCK
  8
LAYER_2
  2
AIGNBL0201009C
 70
64
 10
0
 20
0
 30
0
  3
AIGNBL0201009C
  0
ARC
  8
LAYER_2
 10
265.205
 20
150.753
 40
3
 50
90.00003208
 51
179.9999679
  0
ARC
  8
LAYER_2
 10
265.205
 20
150.753
 40
3
 50
0.0006883626068
 51
89.99931163
  0
ARC
  8
LAYER_2
 10
265.205
 20
150.753
 40
3
 50
269.999968
 51
3.205335706e-005
  0
ARC
  8
LAYER_2
 10
265.205
 20
150.753
 40
3
 50
179.9993116
 51
270.0006884
  0
ENDBLK
  0
BLOCK
  8
LAYER_2
  2
AIGNBL0201009D
 70
64
 10
0
 20
0
 30
0
  3
AIGNBL0201009D
  0
LINE
  8
LAYER_2
 10
248.605
 20
-25.2623
 11
254.605
 21
-25.2623
  0
LINE
  8
LAYER_2
 10
254.605
 20
-25.2623
 11
254.605
 21
-24.2623
  0
LINE
  8
LAYER_2
 10
254.605
 20
-24.2623
 11
248.605
 21
-24.2623
  0
LINE
  8
LAYER_2
 10
248.605
 20
-24.2623
 11
248.605
 21
-25.2623
  0
ENDBLK
  0
BLOCK
  8
LAYER_2
  2
AIGNBL0201009E
 70
64
 10
0
 20
0
 30
0
  3
AIGNBL0201009E
  0
LINE
  8
LAYER_2
 10
248.105
 20
-24.2623
 11
255.105
 21
-24.2623
  0
ARC
  8
LAYER_2
 10
255.105
 20
-23.7623
 40
0.5
 50
270.001779
 51
359.998221
  0
LINE
  8
LAYER_2
 10
255.605
 20
-23.7623
 11
255.605
 21
-23.2623
  0
ARC
  8
LAYER_2
 10
253.605
 20
-23.2623
 40
2
 50
0.0005397812667
 51
89.99946021
  0
LINE
  8
LAYER_2
 10
253.605
 20
-21.2623
 11
249.605
 21
-21.2623
  0
ARC
  8
LAYER_2
 10
249.605
 20
-23.2623
 40
2
 50
89.99955525
 51
180.0004448
  0
LINE
  8
LAYER_2
 10
247.605
 20
-23.2623
 11
247.605
 21
-23.7623
  0
ARC
  8
LAYER_2
 10
248.105
 20
-23.7623
 40
0.5
 50
179.9978408
 51
270.0021592
  0
ENDBLK
  0
BLOCK
  8
LAYER_2
  2
AIGNBL0201009F
 70
64
 10
0
 20
0
 30
0
  3
AIGNBL0201009F
  0
LINE
  8
LAYER_2
 10
235.005
 20
-25.2623
 11
241.005
 21
-25.2623
  0
LINE
  8
LAYER_2
 10
241.005
 20
-25.2623
 11
241.005
 21
-24.2623
  0
LINE
  8
LAYER_2
 10
241.005
 20
-24.2623
 11
235.005
 21
-24.2623
  0
LINE
  8
LAYER_2
 10
235.005
 20
-24.2623
 11
235.005
 21
-25.2623
  0
ENDBLK
  0
BLOCK
  8
LAYER_2
  2
AIGNBL020100A0
 70
64
 10
0
 20
0
 30
0
  3
AIGNBL020100A0
  0
LINE
  8
LAYER_2
 10
234.505
 20
-24.2623
 11
241.505
 21
-24.2623
  0
ARC
  8
LAYER_2
 10
241.505
 20
-23.7623
 40
0.5
 50
270.0017792
 51
359.9982208
  0
LINE
  8
LAYER_2
 10
242.005
 20
-23.7623
 11
242.005
 21
-23.2623
  0
ARC
  8
LAYER_2
 10
240.005
 20
-23.2623
 40
2
 50
0.0005398299748
 51
89.99946016
  0
LINE
  8
LAYER_2
 10
240.005
 20
-21.2623
 11
236.005
 21
-21.2623
  0
ARC
  8
LAYER_2
 10
236.005
 20
-23.2623
 40
2
 50
89.9995552
 51
180.0004448
  0
LINE
  8
LAYER_2
 10
234.005
 20
-23.2623
 11
234.005
 21
-23.7623
  0
ARC
  8
LAYER_2
 10
234.505
 20
-23.7623
 40
0.5
 50
179.9978406
 51
270.0021594
  0
ENDBLK
  0
BLOCK
  8
LAYER_2
  2
AIGNBL020100A1
 70
64
 10
0
 20
0
 30
0
  3
AIGNBL020100A1
  0
LINE
  8
LAYER_2
 10
251.005
 20
57.753
 11
249.205
 21
57.753
  0
LINE
  8
LAYER_2
 10
249.205
 20
57.753
 11
249.205
 21
56.553
  0
LINE
  8
LAYER_2
 10
249.205
 20
56.553
 11
251.005
 21
56.553
  0
ENDBLK
  0
BLOCK
  8
LAYER_2
  2
AIGNBL020100A2
 70
64
 10
0
 20
0
 30
0
  3
AIGNBL020100A2
  0
LINE
  8
LAYER_2
 10
252.205
 20
56.553
 11
254.005
 21
56.553
  0
LINE
  8
LAYER_2
 10
254.005
 20
56.553
 11
254.005
 21
57.753
  0
LINE
  8
LAYER_2
 10
254.005
 20
57.753
 11
252.205
 21
57.753
  0
ENDBLK
  0
BLOCK
  8
LAYER_2
  2
AIGNBL020100A3
 70
64
 10
0
 20
0
 30
0
  3
AIGNBL020100A3
  0
LINE
  8
LAYER_2
 10
252.205
 20
56.553
 11
252.205
 21
54.753
  0
LINE
  8
LAYER_2
 10
252.205
 20
54.753
 11
251.005
 21
54.753
  0
LINE
  8
LAYER_2
 10
251.005
 20
54.753
 11
251.005
 21
56.553
  0
ENDBLK
  0
BLOCK
  8
LAYER_2
  2
AIGNBL020100A4
 70
64
 10
0
 20
0
 30
0
  3
AIGNBL020100A4
  0
LINE
  8
LAYER_2
 10
251.005
 20
57.753
 11
251.005
 21
59.553
  0
LINE
  8
LAYER_2
 10
251.005
 20
59.553
 11
252.205
 21
59.553
  0
LINE
  8
LAYER_2
 10
252.205
 20
59.553
 11
252.205
 21
57.753
  0
ENDBLK
  0
BLOCK
  8
LAYER_2
  2
AIGNBL020100A5
 70
64
 10
0
 20
0
 30
0
  3
AIGNBL020100A5
  0
LINE
  8
LAYER_2
 10
237.405
 20
57.753
 11
235.605
 21
57.753
  0
LINE
  8
LAYER_2
 10
235.605
 20
57.753
 11
235.605
 21
56.553
  0
LINE
  8
LAYER_2
 10
235.605
 20
56.553
 11
237.405
 21
56.553
  0
ENDBLK
  0
BLOCK
  8
LAYER_2
  2
AIGNBL020100A6
 70
64
 10
0
 20
0
 30
0
  3
AIGNBL020100A6
  0
LINE
  8
LAYER_2
 10
238.605
 20
56.553
 11
240.405
 21
56.553
  0
LINE
  8
LAYER_2
 10
240.405
 20
56.553
 11
240.405
 21
57.753
  0
LINE
  8
LAYER_2
 10
240.405
 20
57.753
 11
238.605
 21
57.753
  0
ENDBLK
  0
BLOCK
  8
LAYER_2
  2
AIGNBL020100A7
 70
64
 10
0
 20
0
 30
0
  3
AIGNBL020100A7
  0
LINE
  8
LAYER_2
 10
238.605
 20
56.553
 11
238.605
 21
54.753
  0
LINE
  8
LAYER_2
 10
238.605
 20
54.753
 11
237.405
 21
54.753
  0
LINE
  8
LAYER_2
 10
237.405
 20
54.753
 11
237.405
 21
56.553
  0
ENDBLK
  0
BLOCK
  8
LAYER_2
  2
AIGNBL020100A8
 70
64
 10
0
 20
0
 30
0
  3
AIGNBL020100A8
  0
LINE
  8
LAYER_2
 10
237.405
 20
57.753
 11
237.405
 21
59.553
  0
LINE
  8
LAYER_2
 10
237.405
 20
59.553
 11
238.605
 21
59.553
  0
LINE
  8
LAYER_2
 10
238.605
 20
59.553
 11
238.605
 21
57.753
  0
ENDBLK
  0
BLOCK
  8
LAYER_2
  2
AIGNBL020100A9
 70
64
 10
0
 20
0
 30
0
  3
AIGNBL020100A9
  0
LINE
  8
LAYER_2
 62
3
 10
216.98
 20
163.953
 11
188.7608
 21
163.953
  0
ENDBLK
  0
BLOCK
  8
LAYER_2
  2
AIGNBL020100AA
 70
64
 10
0
 20
0
 30
0
  3
AIGNBL020100AA
  0
LINE
  8
LAYER_2
 62
3
 10
216.98
 20
43.953
 11
188.7608
 21
43.953
  0
ENDBLK
  0
BLOCK
  8
LAYER_2
  2
AIGNBL020100AB
 70
64
 10
0
 20
0
 30
0
  3
AIGNBL020100AB
  0
LINE
  8
LAYER_2
 62
3
 10
190.0108
 20
161.453
 11
190.0108
 21
46.453
  0
ENDBLK
  0
BLOCK
  8
LAYER_2
  2
AIGNBL020100AC
 70
64
 10
0
 20
0
 30
0
  3
AIGNBL020100AC
  0
LINE
  8
LAYER_2
 62
3
 10
189.5941
 20
161.453
 11
190.0108
 21
163.953
  0
LINE
  8
LAYER_2
 62
3
 10
190.0108
 20
163.953
 11
190.4274
 21
161.453
  0
LINE
  8
LAYER_2
 62
3
 10
190.4274
 20
161.453
 11
189.5941
 21
161.453
  0
ENDBLK
  0
BLOCK
  8
LAYER_2
  2
AIGNBL020100AD
 70
64
 10
0
 20
0
 30
0
  3
AIGNBL020100AD
  0
LINE
  8
LAYER_2
 62
3
 10
189.5941
 20
46.453
 11
190.0108
 21
43.953
  0
LINE
  8
LAYER_2
 62
3
 10
190.0108
 20
43.953
 11
190.4274
 21
46.453
  0
LINE
  8
LAYER_2
 62
3
 10
190.4274
 20
46.453
 11
189.5941
 21
46.453
  0
ENDBLK
  0
BLOCK
  8
LAYER_2
  2
AIGNBL020100AE
 70
64
 10
0
 20
0
 30
0
  3
AIGNBL020100AE
  0
TEXT
  8
LAYER_2
 10
189.3431
 20
100.9368
 11
189.3431
 21
100.9368
 40
3.7421
 41
0.5
 50
89.99999999
 62
3
  1
120
  0
ENDBLK
  0
BLOCK
  8
LAYER_2
  2
AIGNBL020100AF
 70
64
 10
0
 20
0
 30
0
  3
AIGNBL020100AF
  0
LINE
  8
LAYER_2
 62
3
 10
217.605
 20
43.328
 11
217.605
 21
26.4634
  0
ENDBLK
  0
BLOCK
  8
LAYER_2
  2
AIGNBL020100B0
 70
64
 10
0
 20
0
 30
0
  3
AIGNBL020100B0
  0
LINE
  8
LAYER_2
 62
3
 10
285.605
 20
43.328
 11
285.605
 21
26.4634
  0
ENDBLK
  0
BLOCK
  8
LAYER_2
  2
AIGNBL020100B1
 70
64
 10
0
 20
0
 30
0
  3
AIGNBL020100B1
  0
LINE
  8
LAYER_2
 62
3
 10
220.105
 20
27.7134
 11
283.105
 21
27.7134
  0
ENDBLK
  0
BLOCK
  8
LAYER_2
  2
AIGNBL020100B2
 70
64
 10
0
 20
0
 30
0
  3
AIGNBL020100B2
  0
LINE
  8
LAYER_2
 62
3
 10
220.105
 20
28.1301
 11
217.605
 21
27.7134
  0
LINE
  8
LAYER_2
 62
3
 10
217.605
 20
27.7134
 11
220.105
 21
27.2967
  0
LINE
  8
LAYER_2
 62
3
 10
220.105
 20
27.2967
 11
220.105
 21
28.1301
  0
ENDBLK
  0
BLOCK
  8
LAYER_2
  2
AIGNBL020100B3
 70
64
 10
0
 20
0
 30
0
  3
AIGNBL020100B3
  0
LINE
  8
LAYER_2
 62
3
 10
283.105
 20
28.1301
 11
285.605
 21
27.7134
  0
LINE
  8
LAYER_2
 62
3
 10
285.605
 20
27.7134
 11
283.105
 21
27.2967
  0
LINE
  8
LAYER_2
 62
3
 10
283.105
 20
27.2967
 11
283.105
 21
28.1301
  0
ENDBLK
  0
BLOCK
  8
LAYER_2
  2
AIGNBL020100B4
 70
64
 10
0
 20
0
 30
0
  3
AIGNBL020100B4
  0
TEXT
  8
LAYER_2
 10
249.6762
 20
28.3811
 11
249.6762
 21
28.3811
 40
3.7421
 41
0.5
 62
3
  1
68
  0
ENDBLK
  0
BLOCK
  8
LAYER_2
  2
AIGNBL020100B5
 70
64
 10
0
 20
0
 30
0
  3
AIGNBL020100B5
  0
LINE
  8
LAYER_2
 62
3
 10
216.98
 20
11.0377
 11
188.7608
 21
11.0377
  0
ENDBLK
  0
BLOCK
  8
LAYER_2
  2
AIGNBL020100B6
 70
64
 10
0
 20
0
 30
0
  3
AIGNBL020100B6
  0
LINE
  8
LAYER_2
 62
3
 10
216.98
 20
-60.9623
 11
188.7608
 21
-60.9623
  0
ENDBLK
  0
BLOCK
  8
LAYER_2
  2
AIGNBL020100B7
 70
64
 10
0
 20
0
 30
0
  3
AIGNBL020100B7
  0
LINE
  8
LAYER_2
 62
3
 10
190.0108
 20
8.5377
 11
190.0108
 21
-58.4623
  0
ENDBLK
  0
BLOCK
  8
LAYER_2
  2
AIGNBL020100B8
 70
64
 10
0
 20
0
 30
0
  3
AIGNBL020100B8
  0
LINE
  8
LAYER_2
 62
3
 10
189.5941
 20
8.5377
 11
190.0108
 21
11.0377
  0
LINE
  8
LAYER_2
 62
3
 10
190.0108
 20
11.0377
 11
190.4274
 21
8.5377
  0
LINE
  8
LAYER_2
 62
3
 10
190.4274
 20
8.5377
 11
189.5941
 21
8.5377
  0
ENDBLK
  0
BLOCK
  8
LAYER_2
  2
AIGNBL020100B9
 70
64
 10
0
 20
0
 30
0
  3
AIGNBL020100B9
  0
LINE
  8
LAYER_2
 62
3
 10
189.5941
 20
-58.4623
 11
190.0108
 21
-60.9623
  0
LINE
  8
LAYER_2
 62
3
 10
190.0108
 20
-60.9623
 11
190.4274
 21
-58.4623
  0
LINE
  8
LAYER_2
 62
3
 10
190.4274
 20
-58.4623
 11
189.5941
 21
-58.4623
  0
ENDBLK
  0
BLOCK
  8
LAYER_2
  2
AIGNBL020100BA
 70
64
 10
0
 20
0
 30
0
  3
AIGNBL020100BA
  0
TEXT
  8
LAYER_2
 10
189.3857
 20
-26.8921
 11
189.3857
 21
-26.8921
 40
3.7421
 41
0.5
 50
89.99999999
 62
3
  1
72
  0
ENDBLK
  0
BLOCK
  8
LAYER_2
  2
AIGNBL020100BB
 70
64
 10
0
 20
0
 30
0
  3
AIGNBL020100BB
  0
ENDBLK
  0
BLOCK
  8
LAYER_2
  2
AIGNBL020100BC
 70
64
 10
0
 20
0
 30
0
  3
AIGNBL020100BC
  0
ENDBLK
  0
BLOCK
  8
LAYER_2
  2
AIGNBL020100BD
 70
64
 10
0
 20
0
 30
0
  3
AIGNBL020100BD
  0
ENDBLK
  0
BLOCK
  8
LAYER_2
  2
AIGNBL020100BE
 70
64
 10
0
 20
0
 30
0
  3
AIGNBL020100BE
  0
ENDBLK
  0
BLOCK
  8
LAYER_2
  2
AIGNBL020100BF
 70
64
 10
0
 20
0
 30
0
  3
AIGNBL020100BF
  0
ENDBLK
  0
BLOCK
  8
LAYER_2
  2
AIGNBL020100C0
 70
64
 10
0
 20
0
 30
0
  3
AIGNBL020100C0
  0
ENDBLK
  0
BLOCK
  8
LAYER_2
  2
AIGNBL020100C1
 70
64
 10
0
 20
0
 30
0
  3
AIGNBL020100C1
  0
ENDBLK
  0
BLOCK
  8
LAYER_2
  2
AIGNBL020100C2
 70
64
 10
0
 20
0
 30
0
  3
AIGNBL020100C2
  0
ENDBLK
  0
BLOCK
  8
LAYER_2
  2
AIGNBL020100C3
 70
64
 10
0
 20
0
 30
0
  3
AIGNBL020100C3
  0
ENDBLK
  0
ENDSEC
  0
SECTION
  2
ENTITIES
  0
INSERT
  8
LAYER_1
  2
AIGNBL01010002
 10
0
 20
0
 30
0
  0
TEXT
  8
LAYER_1
 10
348.9088
 20
-30.5741
 11
348.9088
 21
-30.5741
 40
3.1044
 41
0.5
 72
1
  1
品名
  0
TEXT
  8
LAYER_1
 10
348.9088
 20
-35.2308
 11
348.9088
 21
-35.2308
 40
3.1044
 41
0.5
 72
1
  1
PRODUCT
  0
TEXT
  8
LAYER_1
 10
414.219
 20
-30.5741
 11
414.219
 21
-30.5741
 40
3.1044
 41
0.5
 72
1
  1
型式
  0
TEXT
  8
LAYER_1
 10
414.219
 20
-35.2308
 11
414.219
 21
-35.2308
 40
3.1044
 41
0.5
 72
1
  1
TYPE
  0
TEXT
  8
LAYER_1
 10
414.219
 20
-40.4516
 11
414.219
 21
-40.4516
 40
3.1044
 41
0.5
 72
1
  1
単位
  0
TEXT
  8
LAYER_1
 10
414.219
 20
-45.1084
 11
414.219
 21
-45.1084
 40
3.1044
 41
0.5
 72
1
  1
UNIT
  0
TEXT
  8
LAYER_1
 10
414.219
 20
-60.5799
 11
414.219
 21
-60.5799
 40
3.4815
 41
0.5
 72
1
  1
設計
  0
TEXT
  8
LAYER_1
 10
414.2191
 20
-65.802
 11
414.2191
 21
-65.802
 40
3.4815
 41
0.5
 72
1
  1
DESIGNED
  0
TEXT
  8
LAYER_1
 10
349.219
 20
-40.4517
 11
349.219
 21
-40.4517
 40
3.1044
 41
0.5
 72
1
  1
寸法
  0
TEXT
  8
LAYER_1
 10
349.219
 20
-45.1085
 11
349.219
 21
-45.1085
 40
3.1044
 41
0.5
 72
1
  1
SIZE
  0
TEXT
  8
LAYER_1
 10
349.219
 20
-60.5801
 11
349.219
 21
-60.5801
 40
3.1044
 41
0.5
 72
1
  1
材質
  0
TEXT
  8
LAYER_1
 10
349.219
 20
-65.2368
 11
349.219
 21
-65.2368
 40
3.1044
 41
0.5
 72
1
  1
MATERIAL
  0
TEXT
  8
LAYER_1
 10
349.7268
 20
-50.452
 11
349.7268
 21
-50.452
 40
3.1044
 41
0.5
 72
1
  1
ネジ
  0
TEXT
  8
LAYER_1
 10
349.219
 20
-55.1087
 11
349.219
 21
-55.1087
 40
3.1044
 41
0.5
 72
1
  1
SCREW
  0
TEXT
  8
LAYER_1
 10
413.9088
 20
-50.4519
 11
413.9088
 21
-50.4519
 40
3.1044
 41
0.5
 72
1
  1
日付
  0
TEXT
  8
LAYER_1
 10
413.9088
 20
-55.1086
 11
413.9088
 21
-55.1086
 40
3.1044
 41
0.5
 72
1
  1
DATE
  0
TEXT
  8
LAYER_1
 10
380.3578
 20
-43.2231
 11
380.3578
 21
-43.2231
 40
3.6689
 41
0.5
 72
1
  1
W68×H120×D72
  0
TEXT
  8
LAYER_1
 10
446.7193
 20
-43.2231
 11
446.7193
 21
-43.2231
 40
3.6689
 41
0.5
 72
1
  1
mm
  0
TEXT
  8
LAYER_1
 10
446.7193
 20
-33.2231
 11
446.7193
 21
-33.2231
 40
3.6689
 41
0.5
 72
1
  1
NR-2PLZ
  0
TEXT
  8
LAYER_1
 10
446.7193
 20
-53.2231
 11
446.7193
 21
-53.2231
 40
3.6689
 41
0.5
 72
1
  1
2017.07.24
  0
TEXT
  8
LAYER_1
 10
446.719
 20
-63.2231
 11
446.719
 21
-63.2231
 40
3.6689
 41
0.5
 72
1
  1
戸森 幹二
  0
TEXT
  8
LAYER_1
 10
383.9855
 20
-63.2231
 11
383.9855
 21
-63.2231
 40
3.6689
 41
0.5
 72
1
  1
鉄 アイボリー/黒
  0
TEXT
  8
LAYER_1
 10
381.719
 20
-30.8515
 11
381.719
 21
-30.8515
 40
3.1044
 41
0.5
 72
1
  1
2線式交流電源用
  0
TEXT
  8
LAYER_1
 10
383.5683
 20
-35.5083
 11
383.5683
 21
-35.5083
 40
3.1044
 41
0.5
 72
1
  1
モリブデン避雷器
  0
TEXT
  8
LAYER_1
 10
383.9476
 20
-50.8515
 11
383.9476
 21
-50.8515
 40
3.1044
 41
0.5
 72
1
  1
黄銅 ニッケルメッキ
  0
TEXT
  8
LAYER_1
 10
381.7193
 20
-55.5083
 11
381.7193
 21
-55.5083
 40
3.1044
 41
0.5
 72
1
  1
M4
  0
INSERT
  8
LAYER_1
  2
AIGNBL01010003
 10
0
 20
0
 30
0
  0
INSERT
  8
LAYER_1
  2
AIGNBL0101000A
 10
0
 20
0
 30
0
  0
INSERT
  8
LAYER_2
  2
AIGNBL02010002
 10
0
 20
0
 30
0
  0
INSERT
  8
LAYER_2
  2
AIGNBL02010003
 10
0
 20
0
 30
0
  0
INSERT
  8
LAYER_2
  2
AIGNBL02010004
 10
0
 20
0
 30
0
  0
INSERT
  8
LAYER_2
  2
AIGNBL02010005
 10
0
 20
0
 30
0
  0
INSERT
  8
LAYER_2
  2
AIGNBL02010006
 10
0
 20
0
 30
0
  0
INSERT
  8
LAYER_2
  2
AIGNBL02010007
 10
0
 20
0
 30
0
  0
INSERT
  8
LAYER_2
  2
AIGNBL02010008
 10
0
 20
0
 30
0
  0
INSERT
  8
LAYER_2
  2
AIGNBL02010009
 10
0
 20
0
 30
0
  0
INSERT
  8
LAYER_2
  2
AIGNBL0201000A
 10
0
 20
0
 30
0
  0
INSERT
  8
LAYER_2
  2
AIGNBL0201000B
 10
0
 20
0
 30
0
  0
INSERT
  8
LAYER_2
  2
AIGNBL0201000C
 10
0
 20
0
 30
0
  0
INSERT
  8
LAYER_2
  2
AIGNBL0201000D
 10
0
 20
0
 30
0
  0
INSERT
  8
LAYER_2
  2
AIGNBL0201000E
 10
0
 20
0
 30
0
  0
INSERT
  8
LAYER_2
  2
AIGNBL0201000F
 10
0
 20
0
 30
0
  0
INSERT
  8
LAYER_2
  2
AIGNBL02010010
 10
0
 20
0
 30
0
  0
INSERT
  8
LAYER_2
  2
AIGNBL02010011
 10
0
 20
0
 30
0
  0
INSERT
  8
LAYER_2
  2
AIGNBL02010012
 10
0
 20
0
 30
0
  0
INSERT
  8
LAYER_2
  2
AIGNBL02010013
 10
0
 20
0
 30
0
  0
INSERT
  8
LAYER_2
  2
AIGNBL02010014
 10
0
 20
0
 30
0
  0
INSERT
  8
LAYER_2
  2
AIGNBL02010015
 10
0
 20
0
 30
0
  0
INSERT
  8
LAYER_2
  2
AIGNBL02010016
 10
0
 20
0
 30
0
  0
INSERT
  8
LAYER_2
  2
AIGNBL02010017
 10
0
 20
0
 30
0
  0
INSERT
  8
LAYER_2
  2
AIGNBL02010018
 10
0
 20
0
 30
0
  0
INSERT
  8
LAYER_2
  2
AIGNBL02010019
 10
0
 20
0
 30
0
  0
INSERT
  8
LAYER_2
  2
AIGNBL0201001A
 10
0
 20
0
 30
0
  0
INSERT
  8
LAYER_2
  2
AIGNBL0201001B
 10
0
 20
0
 30
0
  0
INSERT
  8
LAYER_2
  2
AIGNBL0201001C
 10
0
 20
0
 30
0
  0
INSERT
  8
LAYER_2
  2
AIGNBL0201001D
 10
0
 20
0
 30
0
  0
INSERT
  8
LAYER_2
  2
AIGNBL0201001E
 10
0
 20
0
 30
0
  0
INSERT
  8
LAYER_2
  2
AIGNBL0201001F
 10
0
 20
0
 30
0
  0
INSERT
  8
LAYER_2
  2
AIGNBL02010020
 10
0
 20
0
 30
0
  0
INSERT
  8
LAYER_2
  2
AIGNBL02010021
 10
0
 20
0
 30
0
  0
INSERT
  8
LAYER_2
  2
AIGNBL02010022
 10
0
 20
0
 30
0
  0
INSERT
  8
LAYER_2
  2
AIGNBL02010023
 10
0
 20
0
 30
0
  0
INSERT
  8
LAYER_2
  2
AIGNBL02010024
 10
0
 20
0
 30
0
  0
INSERT
  8
LAYER_2
  2
AIGNBL02010025
 10
0
 20
0
 30
0
  0
INSERT
  8
LAYER_2
  2
AIGNBL02010026
 10
0
 20
0
 30
0
  0
INSERT
  8
LAYER_2
  2
AIGNBL02010027
 10
0
 20
0
 30
0
  0
INSERT
  8
LAYER_2
  2
AIGNBL02010028
 10
0
 20
0
 30
0
  0
INSERT
  8
LAYER_2
  2
AIGNBL02010029
 10
0
 20
0
 30
0
  0
INSERT
  8
LAYER_2
  2
AIGNBL0201002A
 10
0
 20
0
 30
0
  0
INSERT
  8
LAYER_2
  2
AIGNBL0201002B
 10
0
 20
0
 30
0
  0
INSERT
  8
LAYER_2
  2
AIGNBL0201002C
 10
0
 20
0
 30
0
  0
INSERT
  8
LAYER_2
  2
AIGNBL0201002D
 10
0
 20
0
 30
0
  0
INSERT
  8
LAYER_2
  2
AIGNBL0201002E
 10
0
 20
0
 30
0
  0
INSERT
  8
LAYER_2
  2
AIGNBL0201002F
 10
0
 20
0
 30
0
  0
INSERT
  8
LAYER_2
  2
AIGNBL02010030
 10
0
 20
0
 30
0
  0
INSERT
  8
LAYER_2
  2
AIGNBL02010031
 10
0
 20
0
 30
0
  0
INSERT
  8
LAYER_2
  2
AIGNBL02010032
 10
0
 20
0
 30
0
  0
INSERT
  8
LAYER_2
  2
AIGNBL02010033
 10
0
 20
0
 30
0
  0
INSERT
  8
LAYER_2
  2
AIGNBL02010034
 10
0
 20
0
 30
0
  0
INSERT
  8
LAYER_2
  2
AIGNBL02010035
 10
0
 20
0
 30
0
  0
INSERT
  8
LAYER_2
  2
AIGNBL02010036
 10
0
 20
0
 30
0
  0
INSERT
  8
LAYER_2
  2
AIGNBL02010037
 10
0
 20
0
 30
0
  0
INSERT
  8
LAYER_2
  2
AIGNBL02010038
 10
0
 20
0
 30
0
  0
INSERT
  8
LAYER_2
  2
AIGNBL02010039
 10
0
 20
0
 30
0
  0
INSERT
  8
LAYER_2
  2
AIGNBL0201003A
 10
0
 20
0
 30
0
  0
INSERT
  8
LAYER_2
  2
AIGNBL0201003B
 10
0
 20
0
 30
0
  0
INSERT
  8
LAYER_2
  2
AIGNBL0201003C
 10
0
 20
0
 30
0
  0
INSERT
  8
LAYER_2
  2
AIGNBL0201003D
 10
0
 20
0
 30
0
  0
INSERT
  8
LAYER_2
  2
AIGNBL0201003E
 10
0
 20
0
 30
0
  0
INSERT
  8
LAYER_2
  2
AIGNBL0201003F
 10
0
 20
0
 30
0
  0
INSERT
  8
LAYER_2
  2
AIGNBL02010040
 10
0
 20
0
 30
0
  0
INSERT
  8
LAYER_2
  2
AIGNBL02010041
 10
0
 20
0
 30
0
  0
INSERT
  8
LAYER_2
  2
AIGNBL02010042
 10
0
 20
0
 30
0
  0
INSERT
  8
LAYER_2
  2
AIGNBL02010043
 10
0
 20
0
 30
0
  0
INSERT
  8
LAYER_2
  2
AIGNBL02010044
 10
0
 20
0
 30
0
  0
INSERT
  8
LAYER_2
  2
AIGNBL02010045
 10
0
 20
0
 30
0
  0
INSERT
  8
LAYER_2
  2
AIGNBL02010046
 10
0
 20
0
 30
0
  0
INSERT
  8
LAYER_2
  2
AIGNBL02010047
 10
0
 20
0
 30
0
  0
INSERT
  8
LAYER_2
  2
AIGNBL02010048
 10
0
 20
0
 30
0
  0
INSERT
  8
LAYER_2
  2
AIGNBL02010049
 10
0
 20
0
 30
0
  0
INSERT
  8
LAYER_2
  2
AIGNBL0201004A
 10
0
 20
0
 30
0
  0
INSERT
  8
LAYER_2
  2
AIGNBL0201004B
 10
0
 20
0
 30
0
  0
INSERT
  8
LAYER_2
  2
AIGNBL0201004C
 10
0
 20
0
 30
0
  0
INSERT
  8
LAYER_2
  2
AIGNBL0201004D
 10
0
 20
0
 30
0
  0
INSERT
  8
LAYER_2
  2
AIGNBL0201004E
 10
0
 20
0
 30
0
  0
INSERT
  8
LAYER_2
  2
AIGNBL0201004F
 10
0
 20
0
 30
0
  0
INSERT
  8
LAYER_2
  2
AIGNBL02010050
 10
0
 20
0
 30
0
  0
INSERT
  8
LAYER_2
  2
AIGNBL02010051
 10
0
 20
0
 30
0
  0
INSERT
  8
LAYER_2
  2
AIGNBL02010052
 10
0
 20
0
 30
0
  0
INSERT
  8
LAYER_2
  2
AIGNBL02010053
 10
0
 20
0
 30
0
  0
INSERT
  8
LAYER_2
  2
AIGNBL02010054
 10
0
 20
0
 30
0
  0
INSERT
  8
LAYER_2
  2
AIGNBL02010055
 10
0
 20
0
 30
0
  0
INSERT
  8
LAYER_2
  2
AIGNBL02010056
 10
0
 20
0
 30
0
  0
INSERT
  8
LAYER_2
  2
AIGNBL02010057
 10
0
 20
0
 30
0
  0
INSERT
  8
LAYER_2
  2
AIGNBL02010058
 10
0
 20
0
 30
0
  0
INSERT
  8
LAYER_2
  2
AIGNBL02010059
 10
0
 20
0
 30
0
  0
INSERT
  8
LAYER_2
  2
AIGNBL0201005A
 10
0
 20
0
 30
0
  0
INSERT
  8
LAYER_2
  2
AIGNBL0201005B
 10
0
 20
0
 30
0
  0
INSERT
  8
LAYER_2
  2
AIGNBL0201005C
 10
0
 20
0
 30
0
  0
INSERT
  8
LAYER_2
  2
AIGNBL0201005D
 10
0
 20
0
 30
0
  0
INSERT
  8
LAYER_2
  2
AIGNBL0201005E
 10
0
 20
0
 30
0
  0
INSERT
  8
LAYER_2
  2
AIGNBL0201005F
 10
0
 20
0
 30
0
  0
INSERT
  8
LAYER_2
  2
AIGNBL02010060
 10
0
 20
0
 30
0
  0
INSERT
  8
LAYER_2
  2
AIGNBL02010061
 10
0
 20
0
 30
0
  0
INSERT
  8
LAYER_2
  2
AIGNBL02010062
 10
0
 20
0
 30
0
  0
INSERT
  8
LAYER_2
  2
AIGNBL02010063
 10
0
 20
0
 30
0
  0
INSERT
  8
LAYER_2
  2
AIGNBL02010064
 10
0
 20
0
 30
0
  0
INSERT
  8
LAYER_2
  2
AIGNBL02010065
 10
0
 20
0
 30
0
  0
INSERT
  8
LAYER_2
  2
AIGNBL02010066
 10
0
 20
0
 30
0
  0
INSERT
  8
LAYER_2
  2
AIGNBL02010067
 10
0
 20
0
 30
0
  0
INSERT
  8
LAYER_2
  2
AIGNBL02010068
 10
0
 20
0
 30
0
  0
INSERT
  8
LAYER_2
  2
AIGNBL02010069
 10
0
 20
0
 30
0
  0
INSERT
  8
LAYER_2
  2
AIGNBL0201006A
 10
0
 20
0
 30
0
  0
INSERT
  8
LAYER_2
  2
AIGNBL0201006B
 10
0
 20
0
 30
0
  0
INSERT
  8
LAYER_2
  2
AIGNBL0201006C
 10
0
 20
0
 30
0
  0
INSERT
  8
LAYER_2
  2
AIGNBL0201006D
 10
0
 20
0
 30
0
  0
INSERT
  8
LAYER_2
  2
AIGNBL0201006E
 10
0
 20
0
 30
0
  0
INSERT
  8
LAYER_2
  2
AIGNBL0201006F
 10
0
 20
0
 30
0
  0
INSERT
  8
LAYER_2
  2
AIGNBL02010070
 10
0
 20
0
 30
0
  0
INSERT
  8
LAYER_2
  2
AIGNBL02010071
 10
0
 20
0
 30
0
  0
INSERT
  8
LAYER_2
  2
AIGNBL02010072
 10
0
 20
0
 30
0
  0
INSERT
  8
LAYER_2
  2
AIGNBL02010073
 10
0
 20
0
 30
0
  0
INSERT
  8
LAYER_2
  2
AIGNBL02010074
 10
0
 20
0
 30
0
  0
INSERT
  8
LAYER_2
  2
AIGNBL02010075
 10
0
 20
0
 30
0
  0
INSERT
  8
LAYER_2
  2
AIGNBL02010076
 10
0
 20
0
 30
0
  0
INSERT
  8
LAYER_2
  2
AIGNBL02010077
 10
0
 20
0
 30
0
  0
INSERT
  8
LAYER_2
  2
AIGNBL02010078
 10
0
 20
0
 30
0
  0
INSERT
  8
LAYER_2
  2
AIGNBL02010079
 10
0
 20
0
 30
0
  0
INSERT
  8
LAYER_2
  2
AIGNBL0201007A
 10
0
 20
0
 30
0
  0
INSERT
  8
LAYER_2
  2
AIGNBL0201007B
 10
0
 20
0
 30
0
  0
INSERT
  8
LAYER_2
  2
AIGNBL0201007C
 10
0
 20
0
 30
0
  0
INSERT
  8
LAYER_2
  2
AIGNBL0201007D
 10
0
 20
0
 30
0
  0
INSERT
  8
LAYER_2
  2
AIGNBL0201007E
 10
0
 20
0
 30
0
  0
INSERT
  8
LAYER_2
  2
AIGNBL0201007F
 10
0
 20
0
 30
0
  0
INSERT
  8
LAYER_2
  2
AIGNBL02010080
 10
0
 20
0
 30
0
  0
INSERT
  8
LAYER_2
  2
AIGNBL02010081
 10
0
 20
0
 30
0
  0
INSERT
  8
LAYER_2
  2
AIGNBL02010082
 10
0
 20
0
 30
0
  0
INSERT
  8
LAYER_2
  2
AIGNBL02010083
 10
0
 20
0
 30
0
  0
INSERT
  8
LAYER_2
  2
AIGNBL02010084
 10
0
 20
0
 30
0
  0
INSERT
  8
LAYER_2
  2
AIGNBL02010085
 10
0
 20
0
 30
0
  0
INSERT
  8
LAYER_2
  2
AIGNBL02010086
 10
0
 20
0
 30
0
  0
INSERT
  8
LAYER_2
  2
AIGNBL02010087
 10
0
 20
0
 30
0
  0
INSERT
  8
LAYER_2
  2
AIGNBL02010088
 10
0
 20
0
 30
0
  0
INSERT
  8
LAYER_2
  2
AIGNBL02010089
 10
0
 20
0
 30
0
  0
INSERT
  8
LAYER_2
  2
AIGNBL0201008A
 10
0
 20
0
 30
0
  0
INSERT
  8
LAYER_2
  2
AIGNBL0201008B
 10
0
 20
0
 30
0
  0
INSERT
  8
LAYER_2
  2
AIGNBL0201008C
 10
0
 20
0
 30
0
  0
INSERT
  8
LAYER_2
  2
AIGNBL0201008D
 10
0
 20
0
 30
0
  0
INSERT
  8
LAYER_2
  2
AIGNBL0201008E
 10
0
 20
0
 30
0
  0
INSERT
  8
LAYER_2
  2
AIGNBL0201008F
 10
0
 20
0
 30
0
  0
INSERT
  8
LAYER_2
  2
AIGNBL02010090
 10
0
 20
0
 30
0
  0
INSERT
  8
LAYER_2
  2
AIGNBL02010091
 10
0
 20
0
 30
0
  0
INSERT
  8
LAYER_2
  2
AIGNBL02010092
 10
0
 20
0
 30
0
  0
INSERT
  8
LAYER_2
  2
AIGNBL02010093
 10
0
 20
0
 30
0
  0
INSERT
  8
LAYER_2
  2
AIGNBL02010094
 10
0
 20
0
 30
0
  0
INSERT
  8
LAYER_2
  2
AIGNBL02010095
 10
0
 20
0
 30
0
  0
INSERT
  8
LAYER_2
  2
AIGNBL02010096
 10
0
 20
0
 30
0
  0
INSERT
  8
LAYER_2
  2
AIGNBL02010097
 10
0
 20
0
 30
0
  0
INSERT
  8
LAYER_2
  2
AIGNBL02010098
 10
0
 20
0
 30
0
  0
INSERT
  8
LAYER_2
  2
AIGNBL02010099
 10
0
 20
0
 30
0
  0
INSERT
  8
LAYER_2
  2
AIGNBL0201009A
 10
0
 20
0
 30
0
  0
INSERT
  8
LAYER_2
  2
AIGNBL0201009B
 10
0
 20
0
 30
0
  0
INSERT
  8
LAYER_2
  2
AIGNBL0201009C
 10
0
 20
0
 30
0
  0
INSERT
  8
LAYER_2
  2
AIGNBL0201009D
 10
0
 20
0
 30
0
  0
INSERT
  8
LAYER_2
  2
AIGNBL0201009E
 10
0
 20
0
 30
0
  0
INSERT
  8
LAYER_2
  2
AIGNBL0201009F
 10
0
 20
0
 30
0
  0
INSERT
  8
LAYER_2
  2
AIGNBL020100A0
 10
0
 20
0
 30
0
  0
INSERT
  8
LAYER_2
  2
AIGNBL020100A1
 10
0
 20
0
 30
0
  0
INSERT
  8
LAYER_2
  2
AIGNBL020100A2
 10
0
 20
0
 30
0
  0
INSERT
  8
LAYER_2
  2
AIGNBL020100A3
 10
0
 20
0
 30
0
  0
INSERT
  8
LAYER_2
  2
AIGNBL020100A4
 10
0
 20
0
 30
0
  0
INSERT
  8
LAYER_2
  2
AIGNBL020100A5
 10
0
 20
0
 30
0
  0
INSERT
  8
LAYER_2
  2
AIGNBL020100A6
 10
0
 20
0
 30
0
  0
INSERT
  8
LAYER_2
  2
AIGNBL020100A7
 10
0
 20
0
 30
0
  0
INSERT
  8
LAYER_2
  2
AIGNBL020100A8
 10
0
 20
0
 30
0
  0
INSERT
  8
LAYER_2
  2
AIGNBL020100A9
 10
0
 20
0
 30
0
  0
INSERT
  8
LAYER_2
  2
AIGNBL020100AA
 10
0
 20
0
 30
0
  0
INSERT
  8
LAYER_2
  2
AIGNBL020100AB
 10
0
 20
0
 30
0
  0
INSERT
  8
LAYER_2
  2
AIGNBL020100AC
 10
0
 20
0
 30
0
  0
INSERT
  8
LAYER_2
  2
AIGNBL020100AD
 10
0
 20
0
 30
0
  0
INSERT
  8
LAYER_2
  2
AIGNBL020100AE
 10
0
 20
0
 30
0
  0
INSERT
  8
LAYER_2
  2
AIGNBL020100AF
 10
0
 20
0
 30
0
  0
INSERT
  8
LAYER_2
  2
AIGNBL020100B0
 10
0
 20
0
 30
0
  0
INSERT
  8
LAYER_2
  2
AIGNBL020100B1
 10
0
 20
0
 30
0
  0
INSERT
  8
LAYER_2
  2
AIGNBL020100B2
 10
0
 20
0
 30
0
  0
INSERT
  8
LAYER_2
  2
AIGNBL020100B3
 10
0
 20
0
 30
0
  0
INSERT
  8
LAYER_2
  2
AIGNBL020100B4
 10
0
 20
0
 30
0
  0
INSERT
  8
LAYER_2
  2
AIGNBL020100B5
 10
0
 20
0
 30
0
  0
INSERT
  8
LAYER_2
  2
AIGNBL020100B6
 10
0
 20
0
 30
0
  0
INSERT
  8
LAYER_2
  2
AIGNBL020100B7
 10
0
 20
0
 30
0
  0
INSERT
  8
LAYER_2
  2
AIGNBL020100B8
 10
0
 20
0
 30
0
  0
INSERT
  8
LAYER_2
  2
AIGNBL020100B9
 10
0
 20
0
 30
0
  0
INSERT
  8
LAYER_2
  2
AIGNBL020100BA
 10
0
 20
0
 30
0
  0
INSERT
  8
LAYER_2
  2
AIGNBL020100BB
 10
0
 20
0
 30
0
  0
INSERT
  8
LAYER_2
  2
AIGNBL020100BC
 10
0
 20
0
 30
0
  0
INSERT
  8
LAYER_2
  2
AIGNBL020100BD
 10
0
 20
0
 30
0
  0
INSERT
  8
LAYER_2
  2
AIGNBL020100BE
 10
0
 20
0
 30
0
  0
INSERT
  8
LAYER_2
  2
AIGNBL020100BF
 10
0
 20
0
 30
0
  0
INSERT
  8
LAYER_2
  2
AIGNBL020100C0
 10
0
 20
0
 30
0
  0
INSERT
  8
LAYER_2
  2
AIGNBL020100C1
 10
0
 20
0
 30
0
  0
INSERT
  8
LAYER_2
  2
AIGNBL020100C2
 10
0
 20
0
 30
0
  0
INSERT
  8
LAYER_2
  2
AIGNBL020100C3
 10
0
 20
0
 30
0
  0
ENDSEC
  0
EOF
